  0
SECTION
  2
HEADER
  9
$ACADVER
  1
AC1015
  9
$ACADMAINTVER
 70
    13
  9
$DWGCODEPAGE
  3
ANSI_932
  9
$INSBASE
 10
0.0
 20
0.0
 30
0.0
  9
$EXTMIN
 10
-0.0405243979350871
 20
-0.0138766836266768
 30
-0.0000000349181948
  9
$EXTMAX
 10
210.0275804618979
 20
297.008014050505
 30
0.0000000814935747
  9
$LIMMIN
 10
-329.8309753418
 20
-5.721865701699999
  9
$LIMMAX
 10
198.2926757813
 20
341.2899291992
  9
$ORTHOMODE
 70
     1
  9
$REGENMODE
 70
     1
  9
$FILLMODE
 70
     1
  9
$QTEXTMODE
 70
     0
  9
$MIRRTEXT
 70
     0
  9
$LTSCALE
 40
1.0
  9
$ATTMODE
 70
     1
  9
$TEXTSIZE
 40
0.200000003
  9
$TRACEWID
 40
0.05
  9
$TEXTSTYLE
  7
STANDARD
  9
$CLAYER
  8
0
  9
$CELTYPE
  6
ByLayer
  9
$CECOLOR
 62
   256
  9
$CELTSCALE
 40
1.0
  9
$DISPSILH
 70
     0
  9
$DIMSCALE
 40
1.0
  9
$DIMASZ
 40
0.1799999998
  9
$DIMEXO
 40
2.539999961899999
  9
$DIMDLI
 40
0.38
  9
$DIMRND
 40
0.0
  9
$DIMDLE
 40
0.0
  9
$DIMEXE
 40
3.809999942799997
  9
$DIMTP
 40
0.0
  9
$DIMTM
 40
0.0
  9
$DIMTXT
 40
0.200000003
  9
$DIMCEN
 40
0.09
  9
$DIMTSZ
 40
0.0
  9
$DIMTOL
 70
     0
  9
$DIMLIM
 70
     0
  9
$DIMTIH
 70
     0
  9
$DIMTOH
 70
     1
  9
$DIMSE1
 70
     0
  9
$DIMSE2
 70
     0
  9
$DIMTAD
 70
     0
  9
$DIMZIN
 70
     0
  9
$DIMBLK
  1

  9
$DIMASO
 70
     1
  9
$DIMSHO
 70
     0
  9
$DIMPOST
  1

  9
$DIMAPOST
  1

  9
$DIMALT
 70
     0
  9
$DIMALTD
 70
     2
  9
$DIMALTF
 40
25.4
  9
$DIMLFAC
 40
1.0
  9
$DIMTOFL
 70
     0
  9
$DIMTVP
 40
0.0
  9
$DIMTIX
 70
     0
  9
$DIMSOXD
 70
     0
  9
$DIMSAH
 70
     0
  9
$DIMBLK1
  1

  9
$DIMBLK2
  1

  9
$DIMSTYLE
  2
Standard
  9
$DIMCLRD
 70
     0
  9
$DIMCLRE
 70
     0
  9
$DIMCLRT
 70
     0
  9
$DIMTFAC
 40
1.0
  9
$DIMGAP
 40
0.09
  9
$DIMJUST
 70
     0
  9
$DIMSD1
 70
     0
  9
$DIMSD2
 70
     0
  9
$DIMTOLJ
 70
     1
  9
$DIMTZIN
 70
     0
  9
$DIMALTZ
 70
     0
  9
$DIMALTTZ
 70
     0
  9
$DIMUPT
 70
     0
  9
$DIMDEC
 70
     4
  9
$DIMTDEC
 70
     4
  9
$DIMALTU
 70
     2
  9
$DIMALTTD
 70
     2
  9
$DIMTXSTY
  7
STANDARD
  9
$DIMAUNIT
 70
     0
  9
$DIMADEC
 70
     0
  9
$DIMALTRND
 40
0.0
  9
$DIMAZIN
 70
     0
  9
$DIMDSEP
 70
    46
  9
$DIMATFIT
 70
     3
  9
$DIMFRAC
 70
     0
  9
$DIMLDRBLK
  1

  9
$DIMLUNIT
 70
     2
  9
$DIMLWD
 70
    -2
  9
$DIMLWE
 70
    -2
  9
$DIMTMOVE
 70
     0
  9
$LUNITS
 70
     2
  9
$LUPREC
 70
     3
  9
$SKETCHINC
 40
0.1
  9
$FILLETRAD
 40
0.0625
  9
$AUNITS
 70
     0
  9
$AUPREC
 70
     0
  9
$MENU
  1
ACAD
  9
$ELEVATION
 40
0.0
  9
$PELEVATION
 40
0.0
  9
$THICKNESS
 40
0.0
  9
$LIMCHECK
 70
     0
  9
$CHAMFERA
 40
0.0
  9
$CHAMFERB
 40
0.0
  9
$CHAMFERC
 40
0.0
  9
$CHAMFERD
 40
0.0
  9
$SKPOLY
 70
     0
  9
$TDCREATE
 40
2452837.704861110
  9
$TDUCREATE
 40
2452837.329861111
  9
$TDUPDATE
 40
2453376.714149664
  9
$TDUUPDATE
 40
2453376.339149664
  9
$TDINDWG
 40
0.0040469560
  9
$TDUSRTIMER
 40
0.0040442361
  9
$USRTIMER
 70
     1
  9
$ANGBASE
 50
0.0
  9
$ANGDIR
 70
     0
  9
$PDMODE
 70
     0
  9
$PDSIZE
 40
0.0
  9
$PLINEWID
 40
0.0
  9
$SPLFRAME
 70
     0
  9
$SPLINETYPE
 70
     6
  9
$SPLINESEGS
 70
     8
  9
$HANDSEED
  5
172
  9
$SURFTAB1
 70
     6
  9
$SURFTAB2
 70
     6
  9
$SURFTYPE
 70
     6
  9
$SURFU
 70
     6
  9
$SURFV
 70
     6
  9
$UCSBASE
  2

  9
$UCSNAME
  2

  9
$UCSORG
 10
0.0
 20
0.0
 30
0.0
  9
$UCSXDIR
 10
1.0
 20
0.0
 30
0.0
  9
$UCSYDIR
 10
0.0
 20
1.0
 30
0.0
  9
$UCSORTHOREF
  2

  9
$UCSORTHOVIEW
 70
     0
  9
$UCSORGTOP
 10
0.0
 20
0.0
 30
0.0
  9
$UCSORGBOTTOM
 10
0.0
 20
0.0
 30
0.0
  9
$UCSORGLEFT
 10
0.0
 20
0.0
 30
0.0
  9
$UCSORGRIGHT
 10
0.0
 20
0.0
 30
0.0
  9
$UCSORGFRONT
 10
0.0
 20
0.0
 30
0.0
  9
$UCSORGBACK
 10
0.0
 20
0.0
 30
0.0
  9
$PUCSBASE
  2

  9
$PUCSNAME
  2

  9
$PUCSORG
 10
0.0
 20
0.0
 30
0.0
  9
$PUCSXDIR
 10
1.0
 20
0.0
 30
0.0
  9
$PUCSYDIR
 10
0.0
 20
1.0
 30
0.0
  9
$PUCSORTHOREF
  2

  9
$PUCSORTHOVIEW
 70
     0
  9
$PUCSORGTOP
 10
0.0
 20
0.0
 30
0.0
  9
$PUCSORGBOTTOM
 10
0.0
 20
0.0
 30
0.0
  9
$PUCSORGLEFT
 10
0.0
 20
0.0
 30
0.0
  9
$PUCSORGRIGHT
 10
0.0
 20
0.0
 30
0.0
  9
$PUCSORGFRONT
 10
0.0
 20
0.0
 30
0.0
  9
$PUCSORGBACK
 10
0.0
 20
0.0
 30
0.0
  9
$USERI1
 70
     8
  9
$USERI2
 70
     0
  9
$USERI3
 70
     0
  9
$USERI4
 70
     0
  9
$USERI5
 70
     0
  9
$USERR1
 40
0.0
  9
$USERR2
 40
0.0
  9
$USERR3
 40
0.0
  9
$USERR4
 40
0.0
  9
$USERR5
 40
0.0
  9
$WORLDVIEW
 70
     1
  9
$SHADEDGE
 70
     3
  9
$SHADEDIF
 70
    70
  9
$TILEMODE
 70
     1
  9
$MAXACTVP
 70
    64
  9
$PINSBASE
 10
0.0
 20
0.0
 30
0.0
  9
$PLIMCHECK
 70
     0
  9
$PEXTMIN
 10
1.000000000000000E+20
 20
1.000000000000000E+20
 30
1.000000000000000E+20
  9
$PEXTMAX
 10
-1.000000000000000E+20
 20
-1.000000000000000E+20
 30
-1.000000000000000E+20
  9
$PLIMMIN
 10
0.0
 20
0.0
  9
$PLIMMAX
 10
12.0
 20
9.0
  9
$UNITMODE
 70
     0
  9
$VISRETAIN
 70
     1
  9
$PLINEGEN
 70
     0
  9
$PSLTSCALE
 70
     1
  9
$TREEDEPTH
 70
  3020
  9
$CMLSTYLE
  2
Standard
  9
$CMLJUST
 70
     0
  9
$CMLSCALE
 40
1.0
  9
$PROXYGRAPHICS
 70
     1
  9
$MEASUREMENT
 70
     0
  9
$CELWEIGHT
370
    -1
  9
$ENDCAPS
280
     0
  9
$JOINSTYLE
280
     0
  9
$LWDISPLAY
290
     0
  9
$INSUNITS
 70
     0
  9
$HYPERLINKBASE
  1

  9
$STYLESHEET
  1

  9
$XEDIT
290
     1
  9
$CEPSNTYPE
380
     0
  9
$PSTYLEMODE
290
     1
  9
$FINGERPRINTGUID
  2
{2E4EE62A-03E2-474A-B3BE-4A2D83B7C083}
  9
$VERSIONGUID
  2
{3047812F-1D97-4983-BDA1-555AF707B4E0}
  9
$EXTNAMES
290
     1
  9
$PSVPSCALE
 40
0.0
  9
$OLESTARTUP
290
     0
  0
ENDSEC
  0
SECTION
  2
CLASSES
  0
CLASS
  1
ACDBDICTIONARYWDFLT
  2
AcDbDictionaryWithDefault
  3
AutoCAD 2000
 90
        0
280
     0
281
     0
  0
CLASS
  1
ACDBPLACEHOLDER
  2
AcDbPlaceHolder
  3
AutoCAD 2000
 90
        0
280
     0
281
     0
  0
CLASS
  1
LAYOUT
  2
AcDbLayout
  3
AutoCAD 2000
 90
        0
280
     0
281
     0
  0
CLASS
  1
DICTIONARYVAR
  2
AcDbDictionaryVar
  3
AutoCAD 2000
 90
        0
280
     0
281
     0
  0
ENDSEC
  0
SECTION
  2
TABLES
  0
TABLE
  2
VPORT
  5
19
330
0
100
AcDbSymbolTable
 70
     2
  0
VPORT
  5
171
330
19
100
AcDbSymbolTableRecord
100
AcDbViewportTableRecord
  2
*Active
 70
     0
 10
0.0
 20
0.0
 11
1.0
 21
1.0
 12
104.9935280319814
 22
148.4970686834392
 13
0.0
 23
0.0
 14
1.0
 24
1.0
 15
0.0
 25
0.0
 16
0.0
 26
0.0
 36
1.0
 17
0.0
 27
0.0
 37
0.0
 40
301.3579767302504
 41
2.407317073170731
 42
50.0
 43
0.0
 44
0.0
 50
0.0
 51
0.0
 71
     0
 72
   100
 73
     1
 74
     1
 75
     0
 76
     0
 77
     0
 78
     0
281
     0
 65
     1
110
0.0
120
0.0
130
0.0
111
1.0
121
0.0
131
0.0
112
0.0
122
1.0
132
0.0
 79
     0
146
0.0
  0
ENDTAB
  0
TABLE
  2
LTYPE
  5
14
330
0
100
AcDbSymbolTable
 70
     2
  0
LTYPE
  5
15
330
14
100
AcDbSymbolTableRecord
100
AcDbLinetypeTableRecord
  2
ByBlock
 70
     0
  3

 72
    65
 73
     0
 40
0.0
  0
LTYPE
  5
16
330
14
100
AcDbSymbolTableRecord
100
AcDbLinetypeTableRecord
  2
ByLayer
 70
     0
  3

 72
    65
 73
     0
 40
0.0
  0
LTYPE
  5
8
330
14
100
AcDbSymbolTableRecord
100
AcDbLinetypeTableRecord
  2
Continuous
 70
     0
  3
Solid line
 72
    65
 73
     0
 40
0.0
  0
LTYPE
  5
2E
330
14
100
AcDbSymbolTableRecord
100
AcDbLinetypeTableRecord
  2
DASHDOT
 70
     0
  3
Dashdot
 72
    65
 73
     4
 40
1.000999999999999
 49
0.5
 74
     0
 49
-0.25
 74
     0
 49
0.0010000000475
 74
     0
 49
-0.25
 74
     0
  0
ENDTAB
  0
TABLE
  2
LAYER
  5
10
330
0
100
AcDbSymbolTable
 70
     1
  0
LAYER
  5
4
330
10
100
AcDbSymbolTableRecord
100
AcDbLayerTableRecord
  2
0
 70
     0
 62
     7
  6
Continuous
370
    -3
390
5
  0
ENDTAB
  0
TABLE
  2
STYLE
  5
11
330
0
100
AcDbSymbolTable
 70
     1
  0
STYLE
  5
12
330
11
100
AcDbSymbolTableRecord
100
AcDbTextStyleTableRecord
  2
STANDARD
 70
     0
 40
0.0
 41
1.0
 50
0.0
 71
     0
 42
0.200000003
  3
romans.shx
  4
bigfont.shx
  0
ENDTAB
  0
TABLE
  2
VIEW
  5
17
330
0
100
AcDbSymbolTable
 70
     0
  0
ENDTAB
  0
TABLE
  2
UCS
  5
18
330
0
100
AcDbSymbolTable
 70
     0
  0
ENDTAB
  0
TABLE
  2
APPID
  5
1B
330
0
100
AcDbSymbolTable
 70
     1
  0
APPID
  5
1C
330
1B
100
AcDbSymbolTableRecord
100
AcDbRegAppTableRecord
  2
ACAD
 70
     0
  0
ENDTAB
  0
TABLE
  2
DIMSTYLE
  5
1D
330
0
100
AcDbSymbolTable
 70
     1
100
AcDbDimStyleTable
 71
     0
  0
DIMSTYLE
105
23
330
1D
100
AcDbSymbolTableRecord
100
AcDbDimStyleTableRecord
  2
Standard
 70
     0
340
12
  0
ENDTAB
  0
TABLE
  2
BLOCK_RECORD
  5
1
330
0
100
AcDbSymbolTable
 70
     1
  0
BLOCK_RECORD
  5
2
330
1
100
AcDbSymbolTableRecord
100
AcDbBlockTableRecord
  2
*Model_Space
340
A
  0
BLOCK_RECORD
  5
C
330
1
100
AcDbSymbolTableRecord
100
AcDbBlockTableRecord
  2
*Paper_Space
340
F
  0
ENDTAB
  0
ENDSEC
  0
SECTION
  2
BLOCKS
  0
BLOCK
  5
3
330
2
100
AcDbEntity
  8
0
100
AcDbBlockBegin
  2
*Model_Space
 70
     0
 10
0.0
 20
0.0
 30
0.0
  3
*Model_Space
  1

  0
ENDBLK
  5
9
330
2
100
AcDbEntity
  8
0
100
AcDbBlockEnd
  0
BLOCK
  5
D
330
C
100
AcDbEntity
 67
     1
  8
0
100
AcDbBlockBegin
  2
*Paper_Space
 70
     0
 10
0.0
 20
0.0
 30
0.0
  3
*Paper_Space
  1

  0
ENDBLK
  5
E
330
C
100
AcDbEntity
 67
     1
  8
0
100
AcDbBlockEnd
  0
ENDSEC
  0
SECTION
  2
ENTITIES
  0
LINE
  5
24
330
2
100
AcDbEntity
  8
0
 62
     3
100
AcDbLine
 10
118.0874738888289
 20
253.417927916341
 30
0.0
 11
118.0874738888289
 21
117.9993799163409
 31
0.0
  0
LINE
  5
25
330
2
100
AcDbEntity
  8
0
 62
     3
100
AcDbLine
 10
133.0874738888287
 20
110.7086999163409
 30
0.0
 11
133.0874738888287
 21
260.708699916341
 31
0.0
  0
LINE
  5
26
330
2
100
AcDbEntity
  8
0
 62
     3
100
AcDbLine
 10
127.0874738888289
 20
111.7090959163409
 30
0.0
 11
127.0874738888289
 21
259.7082119163409
 31
0.0
  0
LINE
  5
27
330
2
100
AcDbEntity
  8
0
 62
     3
100
AcDbLine
 10
198.5874738888288
 20
114.8000699163409
 30
0.0
 11
198.5874738888288
 21
256.6171479163409
 31
0.0
  0
LINE
  5
28
330
2
100
AcDbEntity
  8
0
 62
     3
100
AcDbLine
 10
133.0874738888287
 20
260.708699916341
 30
0.0
 11
133.0874738888287
 21
110.7086999163409
 31
0.0
  0
LINE
  5
29
330
2
100
AcDbEntity
  8
0
 62
     3
100
AcDbLine
 10
136.0874738888287
 20
238.708699916341
 30
0.0
 11
136.0874738888287
 21
132.7086999163409
 31
0.0
  0
LINE
  5
2A
330
2
100
AcDbEntity
  8
0
 62
     3
100
AcDbLine
 10
138.0874738888287
 20
236.708699916341
 30
0.0
 11
138.0874738888287
 21
134.7086999163409
 31
0.0
  0
LINE
  5
2B
330
2
100
AcDbEntity
  8
0
 62
     3
100
AcDbLine
 10
101.8467610323547
 20
116.7093719163409
 30
0.0
 11
101.8467610323547
 21
254.7082119163408
 31
0.0
  0
LINE
  5
2C
330
2
100
AcDbEntity
  8
0
 62
     3
100
AcDbLine
 10
15.84676103235472
 20
116.7093719163409
 30
0.0
 11
15.84676103235472
 21
254.7082119163408
 31
0.0
  0
LINE
  5
2D
330
2
100
AcDbEntity
  8
0
  6
DASHDOT
 62
     3
100
AcDbLine
 10
58.84676103235472
 20
107.0541279163409
 30
0.0
 11
58.84676103235472
 21
265.0202239163409
 31
0.0
  0
LINE
  5
2F
330
2
100
AcDbEntity
  8
0
 62
     3
100
AcDbLine
 10
97.34676103235472
 20
127.9339799163409
 30
0.0
 11
97.34676103235472
 21
243.483601916341
 31
0.0
  0
LINE
  5
30
330
2
100
AcDbEntity
  8
0
 62
     3
100
AcDbLine
 10
96.34676103235472
 20
127.9339799163409
 30
0.0
 11
96.34676103235472
 21
243.483601916341
 31
0.0
  0
LINE
  5
31
330
2
100
AcDbEntity
  8
0
 62
     3
100
AcDbLine
 10
20.34672903235468
 20
127.9339799163409
 30
0.0
 11
20.34672903235468
 21
243.483601916341
 31
0.0
  0
LINE
  5
32
330
2
100
AcDbEntity
  8
0
 62
     3
100
AcDbLine
 10
21.34672903235468
 20
127.9339799163409
 30
0.0
 11
21.34672903235468
 21
243.483601916341
 31
0.0
  0
LINE
  5
33
330
2
100
AcDbEntity
  8
0
100
AcDbLine
 10
0.0
 20
297.0
 30
0.0
 11
0.0
 21
0.0
 31
0.0
  0
LINE
  5
34
330
2
100
AcDbEntity
  8
0
100
AcDbLine
 10
210.0
 20
0.0
 30
0.0
 11
210.0
 21
297.0
 31
0.0
  0
ARC
  5
35
330
2
100
AcDbEntity
  8
0
 62
     3
100
AcDbCircle
 10
95.84676103235471
 20
116.7091259163409
 30
0.0
 40
6.0
100
AcDbArc
 50
269.999854
 51
0.0
  0
CIRCLE
  5
36
330
2
100
AcDbEntity
  8
0
 62
     3
100
AcDbCircle
 10
95.84676103235471
 20
116.7086999163409
 30
0.0
 40
4.499997999999997
  0
LINE
  5
37
330
2
100
AcDbEntity
  8
0
  6
DASHDOT
 62
     3
100
AcDbLine
 10
86.24666303235471
 20
116.7086999163409
 30
0.0
 11
105.4466130323546
 21
116.7086999163409
 31
0.0
  0
LINE
  5
38
330
2
100
AcDbEntity
  8
0
  6
DASHDOT
 62
     3
100
AcDbLine
 10
98.84669503235478
 20
122.7087019163409
 30
0.0
 11
107.8467250323547
 21
122.7086699163409
 31
0.0
  0
LINE
  5
39
330
2
100
AcDbEntity
  8
0
 62
     3
100
AcDbLine
 10
97.2609450323547
 20
117.4157299163409
 30
0.0
 11
99.36275103235471
 21
119.5170499163409
 31
0.0
  0
LINE
  5
3A
330
2
100
AcDbEntity
  8
0
100
AcDbLine
 10
0.0
 20
0.0
 30
0.0
 11
210.0
 21
0.0
 31
0.0
  0
LINE
  5
3B
330
2
100
AcDbEntity
  8
0
 62
     3
100
AcDbLine
 10
76.34676103235472
 20
81.20869991634094
 30
0.0
 11
76.34676103235472
 21
110.7086999163409
 31
0.0
  0
LINE
  5
3C
330
2
100
AcDbEntity
  8
0
 62
     3
100
AcDbLine
 10
41.34676103235472
 20
110.7086999163409
 30
0.0
 11
41.34676103235472
 21
81.20869991634094
 31
0.0
  0
LINE
  5
3D
330
2
100
AcDbEntity
  8
0
  6
DASHDOT
 62
     3
100
AcDbLine
 10
95.84676103235471
 20
107.1086939163409
 30
0.0
 11
95.84676103235471
 21
126.3086759163409
 31
0.0
  0
LINE
  5
3E
330
2
100
AcDbEntity
  8
0
  6
DASHDOT
 62
     3
100
AcDbLine
 10
21.84676103235472
 20
107.1086939163409
 30
0.0
 11
21.84676103235472
 21
126.3086759163409
 31
0.0
  0
LINE
  5
3F
330
2
100
AcDbEntity
  8
0
  6
DASHDOT
 62
     3
100
AcDbLine
 10
58.84676103235472
 20
70.20869991634095
 30
0.0
 11
58.84676103235472
 21
118.2086999163409
 31
0.0
  0
LINE
  5
40
330
2
100
AcDbEntity
  8
0
 62
     3
100
AcDbLine
 10
76.34676103235472
 20
108.2086999163409
 30
0.0
 11
41.34676103235472
 21
108.2086999163409
 31
0.0
  0
LINE
  5
41
330
2
100
AcDbEntity
  8
0
 62
     3
100
AcDbLine
 10
65.34676103235472
 20
104.2086999163409
 30
0.0
 11
52.34676103235472
 21
104.2086999163409
 31
0.0
  0
LINE
  5
42
330
2
100
AcDbEntity
  8
0
 62
     3
100
AcDbLine
 10
42.34676103235472
 20
80.20869991634095
 30
0.0
 11
75.34676103235472
 21
80.20869991634095
 31
0.0
  0
LINE
  5
43
330
2
100
AcDbEntity
  8
0
 62
     3
100
AcDbLine
 10
41.34676103235472
 20
81.20869991634094
 30
0.0
 11
76.34676103235472
 21
81.20869991634094
 31
0.0
  0
LINE
  5
44
330
2
100
AcDbEntity
  8
0
 62
     3
100
AcDbLine
 10
41.34676103235472
 20
81.20869991634094
 30
0.0
 11
42.34676103235472
 21
80.20869991634095
 31
0.0
  0
LINE
  5
45
330
2
100
AcDbEntity
  8
0
 62
     3
100
AcDbLine
 10
52.34676103235472
 20
91.20869991634092
 30
0.0
 11
52.34676103235472
 21
104.2086999163409
 31
0.0
  0
LINE
  5
46
330
2
100
AcDbEntity
  8
0
 62
     3
100
AcDbLine
 10
48.34676103235472
 20
91.20869991634092
 30
0.0
 11
48.34676103235472
 21
104.2086699163409
 31
0.0
  0
LINE
  5
47
330
2
100
AcDbEntity
  8
0
 62
     3
100
AcDbLine
 10
41.34676103235472
 20
90.20869991634095
 30
0.0
 11
56.84676103235472
 21
90.20869991634095
 31
0.0
  0
ARC
  5
48
330
2
100
AcDbEntity
  8
0
 62
     3
100
AcDbCircle
 10
45.34676103235471
 20
95.20869991634095
 30
0.0
 40
5.0
100
AcDbArc
 50
270.0
 51
306.869871
  0
ARC
  5
49
330
2
100
AcDbEntity
  8
0
 62
     3
100
AcDbCircle
 10
55.34676103235472
 20
95.20869991634095
 30
0.0
 40
5.0
100
AcDbArc
 50
233.1299969999999
 51
270.0
  0
LINE
  5
4A
330
2
100
AcDbEntity
  8
0
 62
     3
100
AcDbLine
 10
48.34676103235472
 20
91.20869991634092
 30
0.0
 11
52.34676103235472
 21
91.20869991634092
 31
0.0
  0
LINE
  5
4B
330
2
100
AcDbEntity
  8
0
 62
     3
100
AcDbLine
 10
48.34676103235472
 20
104.2086999163409
 30
0.0
 11
41.34676103235472
 21
104.2086999163409
 31
0.0
  0
LINE
  5
4C
330
2
100
AcDbEntity
  8
0
 62
     3
100
AcDbLine
 10
75.34676103235472
 20
80.20869991634095
 30
0.0
 11
76.34676103235472
 21
81.20869991634094
 31
0.0
  0
LINE
  5
4D
330
2
100
AcDbEntity
  8
0
 62
     3
100
AcDbLine
 10
69.34676103235472
 20
91.20869991634092
 30
0.0
 11
69.34676103235472
 21
104.2086699163409
 31
0.0
  0
LINE
  5
4E
330
2
100
AcDbEntity
  8
0
 62
     3
100
AcDbLine
 10
65.34676103235472
 20
91.20869991634092
 30
0.0
 11
65.34676103235472
 21
104.2086699163409
 31
0.0
  0
LINE
  5
4F
330
2
100
AcDbEntity
  8
0
 62
     3
100
AcDbLine
 10
76.34676103235472
 20
90.20869991634095
 30
0.0
 11
60.84672903235468
 21
90.20866991634097
 31
0.0
  0
LINE
  5
50
330
2
100
AcDbEntity
  8
0
 62
     3
100
AcDbLine
 10
69.34676103235472
 20
91.20869991634092
 30
0.0
 11
65.34676103235472
 21
91.20869991634092
 31
0.0
  0
ARC
  5
51
330
2
100
AcDbEntity
  8
0
 62
     3
100
AcDbCircle
 10
62.34676103235472
 20
95.20869991634095
 30
0.0
 40
5.0
100
AcDbArc
 50
270.0
 51
306.869723
  0
ARC
  5
52
330
2
100
AcDbEntity
  8
0
 62
     3
100
AcDbCircle
 10
72.34676103235472
 20
95.20869991634095
 30
0.0
 40
5.0
100
AcDbArc
 50
233.1299889999999
 51
270.0
  0
LINE
  5
53
330
2
100
AcDbEntity
  8
0
 62
     3
100
AcDbLine
 10
76.34676103235472
 20
104.2086999163409
 30
0.0
 11
69.34676103235472
 21
104.2086999163409
 31
0.0
  0
LINE
  5
54
330
2
100
AcDbEntity
  8
0
  6
DASHDOT
 62
     3
100
AcDbLine
 10
12.24666303235471
 20
116.7086999163409
 30
0.0
 11
31.44661303235466
 21
116.7086999163409
 31
0.0
  0
ARC
  5
55
330
2
100
AcDbEntity
  8
0
 62
     3
100
AcDbCircle
 10
21.84676103235472
 20
116.7091259163409
 30
0.0
 40
6.0
100
AcDbArc
 50
179.9998539999999
 51
270.0
  0
LINE
  5
56
330
2
100
AcDbEntity
  8
0
 62
     3
100
AcDbLine
 10
40.84676103235472
 20
127.7086999163409
 30
0.0
 11
76.84676103235472
 21
127.7086999163409
 31
0.0
  0
LINE
  5
57
330
2
100
AcDbEntity
  8
0
 62
     3
100
AcDbLine
 10
76.84676103235472
 20
139.7086999163409
 30
0.0
 11
40.84676103235472
 21
139.7086699163409
 31
0.0
  0
LINE
  5
58
330
2
100
AcDbEntity
  8
0
 62
     3
100
AcDbLine
 10
84.62178503235476
 20
115.2088819163409
 30
0.0
 11
33.0717350323548
 21
115.2088819163409
 31
0.0
  0
LINE
  5
59
330
2
100
AcDbEntity
  8
0
 62
     3
100
AcDbLine
 10
84.62178503235476
 20
116.2088819163409
 30
0.0
 11
33.0717350323548
 21
116.2088819163409
 31
0.0
  0
LINE
  5
5A
330
2
100
AcDbEntity
  8
0
 62
     3
100
AcDbLine
 10
76.34672903235468
 20
110.7086999163409
 30
0.0
 11
41.34672903235466
 21
110.7086999163409
 31
0.0
  0
LINE
  5
5B
330
2
100
AcDbEntity
  8
0
 62
     3
100
AcDbLine
 10
95.84672903235469
 20
110.7088819163409
 30
0.0
 11
21.84679103235475
 21
110.7088819163409
 31
0.0
  0
LINE
  5
5C
330
2
100
AcDbEntity
  8
0
 62
     3
100
AcDbLine
 10
38.84676103235472
 20
137.7086699163409
 30
0.0
 11
38.84676103235472
 21
129.7086999163409
 31
0.0
  0
LINE
  5
5D
330
2
100
AcDbEntity
  8
0
  6
DASHDOT
 62
     3
100
AcDbLine
 10
28.84672903235468
 20
136.7091579163409
 30
0.0
 11
28.84679103235475
 21
120.7086999163409
 31
0.0
  0
ARC
  5
5E
330
2
100
AcDbEntity
  8
0
 62
     3
100
AcDbCircle
 10
21.84676103235472
 20
116.7088819163409
 30
0.0
 40
7.5
100
AcDbArc
 50
12.557256
 51
77.444299
  0
ARC
  5
5F
330
2
100
AcDbEntity
  8
0
 62
     3
100
AcDbCircle
 10
21.84676103235472
 20
116.7088819163409
 30
0.0
 40
8.5
100
AcDbArc
 50
12.55636299999999
 51
77.44416099999998
  0
ARC
  5
60
330
2
100
AcDbEntity
  8
0
 62
     3
100
AcDbCircle
 10
23.96806703235472
 20
116.7086699163409
 30
0.0
 40
1.0
100
AcDbArc
 50
134.9993819999999
 51
224.998764
  0
ARC
  5
61
330
2
100
AcDbEntity
  8
0
 62
     3
100
AcDbCircle
 10
19.72542303235468
 20
116.7086999163409
 30
0.0
 40
1.0
100
AcDbArc
 50
315.0006179999998
 51
44.99876399999997
  0
CIRCLE
  5
62
330
2
100
AcDbEntity
  8
0
 62
     3
100
AcDbCircle
 10
21.84676103235472
 20
116.7086999163409
 30
0.0
 40
4.499997999999997
  0
ARC
  5
63
330
2
100
AcDbEntity
  8
0
 62
     3
100
AcDbCircle
 10
21.84672903235469
 20
114.5873619163409
 30
0.0
 40
1.0
100
AcDbArc
 50
45.0
 51
134.998145
  0
LINE
  5
64
330
2
100
AcDbEntity
  8
0
 62
     3
100
AcDbLine
 10
18.33095303235472
 20
113.8998619163409
 30
0.0
 11
20.43254503235471
 21
116.0014239163409
 31
0.0
  0
LINE
  5
65
330
2
100
AcDbEntity
  8
0
 62
     3
100
AcDbLine
 10
19.03801303235468
 20
113.1928299163409
 30
0.0
 11
21.13963703235481
 21
115.2943939163409
 31
0.0
  0
LINE
  5
66
330
2
100
AcDbEntity
  8
0
 62
     3
100
AcDbLine
 10
22.5538530323547
 20
115.2944839163409
 30
0.0
 11
23.19026703235476
 21
114.6580719163409
 31
0.0
  0
LINE
  5
67
330
2
100
AcDbEntity
  8
0
 62
     3
100
AcDbLine
 10
23.19026703235476
 20
114.6580719163409
 30
0.0
 11
23.89735903235475
 21
115.3651639163409
 31
0.0
  0
LINE
  5
68
330
2
100
AcDbEntity
  8
0
 62
     3
100
AcDbLine
 10
23.26094503235481
 20
116.0015759163409
 30
0.0
 11
23.89735903235475
 21
115.3651639163409
 31
0.0
  0
ARC
  5
69
330
2
100
AcDbEntity
  8
0
 62
     3
100
AcDbCircle
 10
21.84676103235472
 20
118.8300079163409
 30
0.0
 40
1.0
100
AcDbArc
 50
225.0
 51
314.999382
  0
LINE
  5
6A
330
2
100
AcDbEntity
  8
0
 62
     3
100
AcDbLine
 10
19.79613103235465
 20
118.0521759163409
 30
0.0
 11
20.50325503235467
 21
118.7592979163409
 31
0.0
  0
LINE
  5
6B
330
2
100
AcDbEntity
  8
0
 62
     3
100
AcDbLine
 10
20.50325503235467
 20
118.7592979163409
 30
0.0
 11
21.13963703235481
 21
118.1228839163409
 31
0.0
  0
LINE
  5
6C
330
2
100
AcDbEntity
  8
0
 62
     3
100
AcDbLine
 10
19.79613103235465
 20
118.0521759163409
 30
0.0
 11
20.43254503235471
 21
117.4157919163409
 31
0.0
  0
LINE
  5
6D
330
2
100
AcDbEntity
  8
0
 62
     3
100
AcDbLine
 10
23.26094503235481
 20
117.4157299163409
 30
0.0
 11
25.36275103235471
 21
119.5170499163409
 31
0.0
  0
LINE
  5
6E
330
2
100
AcDbEntity
  8
0
 62
     3
100
AcDbLine
 10
22.5538530323547
 20
118.1227619163409
 30
0.0
 11
24.65529303235473
 21
120.2245679163409
 31
0.0
  0
ARC
  5
6F
330
2
100
AcDbEntity
  8
0
 62
     3
100
AcDbCircle
 10
33.0717350323548
 20
119.2088819163409
 30
0.0
 40
3.0
100
AcDbArc
 50
192.5544109999999
 51
270.0
  0
ARC
  5
70
330
2
100
AcDbEntity
  8
0
 62
     3
100
AcDbCircle
 10
33.0717350323548
 20
119.2088819163409
 30
0.0
 40
4.0
100
AcDbArc
 50
192.5532259999998
 51
270.0
  0
LINE
  5
71
330
2
100
AcDbEntity
  8
0
  6
DASHDOT
 62
     3
100
AcDbLine
 10
36.84676103235472
 20
128.709187916341
 30
0.0
 11
20.84676103235472
 21
128.7086699163409
 31
0.0
  0
ARC
  5
72
330
2
100
AcDbEntity
  8
0
 62
     3
100
AcDbCircle
 10
24.34672903235469
 20
127.9339799163409
 30
0.0
 40
3.0
100
AcDbArc
 50
179.9997089999999
 51
257.444957
  0
ARC
  5
73
330
2
100
AcDbEntity
  8
0
 62
     3
100
AcDbCircle
 10
24.34672903235469
 20
127.9339799163409
 30
0.0
 40
4.0
100
AcDbArc
 50
179.999781
 51
257.4444979999999
  0
ARC
  5
74
330
2
100
AcDbEntity
  8
0
 62
     3
100
AcDbCircle
 10
40.84676103235472
 20
129.7086999163409
 30
0.0
 40
2.0
100
AcDbArc
 50
179.9995629999999
 51
270.0
  0
ARC
  5
75
330
2
100
AcDbEntity
  8
0
 62
     3
100
AcDbCircle
 10
40.84676103235472
 20
137.7086699163409
 30
0.0
 40
2.0
100
AcDbArc
 50
89.99956299999999
 51
179.9995629999999
  0
LINE
  5
76
330
2
100
AcDbEntity
  8
0
 62
     3
100
AcDbLine
 10
78.84676103235472
 20
129.708669916341
 30
0.0
 11
78.84676103235472
 21
137.7086699163409
 31
0.0
  0
LINE
  5
77
330
2
100
AcDbEntity
  8
0
  6
DASHDOT
 62
     3
100
AcDbLine
 10
88.84676103235472
 20
136.7091879163409
 30
0.0
 11
88.84672903235466
 21
120.7086999163409
 31
0.0
  0
ARC
  5
78
330
2
100
AcDbEntity
  8
0
 62
     3
100
AcDbCircle
 10
76.84676103235472
 20
129.7086999163409
 30
0.0
 40
2.0
100
AcDbArc
 50
269.9995629999999
 51
0.0
  0
ARC
  5
79
330
2
100
AcDbEntity
  8
0
 62
     3
100
AcDbCircle
 10
95.84676103235471
 20
116.7088819163409
 30
0.0
 40
7.5
100
AcDbArc
 50
102.555814
 51
167.442744
  0
ARC
  5
7A
330
2
100
AcDbEntity
  8
0
 62
     3
100
AcDbCircle
 10
95.84676103235471
 20
116.7088819163409
 30
0.0
 40
8.5
100
AcDbArc
 50
102.5557159999999
 51
167.4435359999999
  0
ARC
  5
7B
330
2
100
AcDbEntity
  8
0
 62
     3
100
AcDbCircle
 10
84.62178503235476
 20
119.2088819163409
 30
0.0
 40
4.0
100
AcDbArc
 50
269.9997809999999
 51
347.446774
  0
ARC
  5
7C
330
2
100
AcDbEntity
  8
0
 62
     3
100
AcDbCircle
 10
84.62178503235476
 20
119.2088819163409
 30
0.0
 40
3.0
100
AcDbArc
 50
269.999709
 51
347.4455889999998
  0
ARC
  5
7D
330
2
100
AcDbEntity
  8
0
 62
     3
100
AcDbCircle
 10
97.96806703235473
 20
116.7086699163409
 30
0.0
 40
1.0
100
AcDbArc
 50
135.0
 51
224.9981449999999
  0
ARC
  5
7E
330
2
100
AcDbEntity
  8
0
 62
     3
100
AcDbCircle
 10
93.72542303235467
 20
116.7086999163409
 30
0.0
 40
1.0
100
AcDbArc
 50
315.0
 51
44.99938200000001
  0
LINE
  5
7F
330
2
100
AcDbEntity
  8
0
 62
     3
100
AcDbLine
 10
92.33095303235472
 20
113.8998619163409
 30
0.0
 11
94.4325450323547
 21
116.0014239163409
 31
0.0
  0
LINE
  5
80
330
2
100
AcDbEntity
  8
0
 62
     3
100
AcDbLine
 10
93.03801303235468
 20
113.1928299163409
 30
0.0
 11
95.1396370323547
 21
115.2943939163409
 31
0.0
  0
LINE
  5
81
330
2
100
AcDbEntity
  8
0
 62
     3
100
AcDbLine
 10
97.19026703235478
 20
114.6580719163409
 30
0.0
 11
97.89735903235476
 21
115.3651639163409
 31
0.0
  0
LINE
  5
82
330
2
100
AcDbEntity
  8
0
 62
     3
100
AcDbLine
 10
97.2609450323547
 20
116.0015759163409
 30
0.0
 11
97.89735903235476
 21
115.3651639163409
 31
0.0
  0
LINE
  5
83
330
2
100
AcDbEntity
  8
0
 62
     3
100
AcDbLine
 10
96.55385303235471
 20
115.2944839163409
 30
0.0
 11
97.19026703235478
 21
114.6580719163409
 31
0.0
  0
ARC
  5
84
330
2
100
AcDbEntity
  8
0
 62
     3
100
AcDbCircle
 10
95.84672903235469
 20
114.5873619163409
 30
0.0
 40
1.0
100
AcDbArc
 50
45.000618
 51
134.9987639999999
  0
LINE
  5
85
330
2
100
AcDbEntity
  8
0
 62
     3
100
AcDbLine
 10
93.79613103235476
 20
118.0521759163409
 30
0.0
 11
94.50325503235466
 21
118.7592979163409
 31
0.0
  0
LINE
  5
86
330
2
100
AcDbEntity
  8
0
 62
     3
100
AcDbLine
 10
93.79613103235476
 20
118.0521759163409
 30
0.0
 11
94.4325450323547
 21
117.4157919163409
 31
0.0
  0
LINE
  5
87
330
2
100
AcDbEntity
  8
0
 62
     3
100
AcDbLine
 10
96.55385303235471
 20
118.1227619163409
 30
0.0
 11
98.65529303235474
 21
120.2245679163409
 31
0.0
  0
LINE
  5
88
330
2
100
AcDbEntity
  8
0
 62
     3
100
AcDbLine
 10
94.50325503235466
 20
118.7592979163409
 30
0.0
 11
95.1396370323547
 21
118.1228839163409
 31
0.0
  0
ARC
  5
89
330
2
100
AcDbEntity
  8
0
 62
     3
100
AcDbCircle
 10
95.84676103235471
 20
118.8300079163409
 30
0.0
 40
1.0
100
AcDbArc
 50
224.9993819999998
 51
314.9987639999999
  0
LINE
  5
8A
330
2
100
AcDbEntity
  8
0
  6
DASHDOT
 62
     3
100
AcDbLine
 10
80.84672903235469
 20
128.709187916341
 30
0.0
 11
96.84676103235473
 21
128.7086999163409
 31
0.0
  0
ARC
  5
8B
330
2
100
AcDbEntity
  8
0
 62
     3
100
AcDbCircle
 10
93.34676103235471
 20
127.9339799163409
 30
0.0
 40
3.0
100
AcDbArc
 50
282.5556119999999
 51
0.0
  0
ARC
  5
8C
330
2
100
AcDbEntity
  8
0
 62
     3
100
AcDbCircle
 10
93.34676103235471
 20
127.9339799163409
 30
0.0
 40
4.0
100
AcDbArc
 50
282.5555019999999
 51
0.0
  0
ARC
  5
8D
330
2
100
AcDbEntity
  8
0
 62
     3
100
AcDbCircle
 10
76.84676103235472
 20
137.7086699163409
 30
0.0
 40
2.0
100
AcDbArc
 50
0.0
 51
90.0
  0
LINE
  5
8E
330
2
100
AcDbEntity
  8
0
  6
DASHDOT
 62
     3
100
AcDbLine
 10
42.74672303235479
 20
185.7084099163409
 30
0.0
 11
74.94675103235477
 21
185.7084559163409
 31
0.0
  0
ARC
  5
8F
330
2
100
AcDbEntity
  8
0
 62
     3
100
AcDbCircle
 10
58.84676103235472
 20
185.7084559163409
 30
0.0
 40
11.09999799999999
100
AcDbArc
 50
99.070961
 51
350.929004
  0
LINE
  5
90
330
2
100
AcDbEntity
  8
0
 62
     3
100
AcDbLine
 10
57.09676103235472
 20
198.6084559163409
 30
0.0
 11
60.59676103235472
 21
198.6084559163409
 31
0.0
  0
LINE
  5
91
330
2
100
AcDbEntity
  8
0
 62
     3
100
AcDbLine
 10
57.09676103235472
 20
198.6084499163409
 30
0.0
 11
57.09676103235472
 21
196.6696219163408
 31
0.0
  0
ARC
  5
92
330
2
100
AcDbEntity
  8
0
 62
     3
100
AcDbCircle
 10
58.84676103235472
 20
185.7084559163409
 30
0.0
 40
11.09999799999999
100
AcDbArc
 50
9.070975999999999
 51
80.928999
  0
LINE
  5
93
330
2
100
AcDbEntity
  8
0
 62
     3
100
AcDbLine
 10
71.7467590323547
 20
187.4584559163409
 30
0.0
 11
71.7467590323547
 21
183.9584559163409
 31
0.0
  0
LINE
  5
94
330
2
100
AcDbEntity
  8
0
 62
     3
100
AcDbLine
 10
69.80792703235465
 20
183.9584559163409
 30
0.0
 11
71.74675503235471
 21
183.9584559163409
 31
0.0
  0
LINE
  5
95
330
2
100
AcDbEntity
  8
0
 62
     3
100
AcDbLine
 10
69.80792703235465
 20
187.4584559163409
 30
0.0
 11
71.74675503235471
 21
187.4584559163409
 31
0.0
  0
LINE
  5
96
330
2
100
AcDbEntity
  8
0
 62
     3
100
AcDbLine
 10
60.59676103235472
 20
198.6084499163409
 30
0.0
 11
60.59676103235472
 21
196.6696219163408
 31
0.0
  0
LINE
  5
97
330
2
100
AcDbEntity
  8
0
 62
     3
100
AcDbLine
 10
187.0872298888287
 20
104.2086999163409
 30
0.0
 11
187.0872298888287
 21
111.6510819163409
 31
0.0
  0
LINE
  5
98
330
2
100
AcDbEntity
  8
0
 62
     3
100
AcDbLine
 10
152.0872298888289
 20
111.0402419163409
 30
0.0
 11
152.0872298888289
 21
104.2084559163409
 31
0.0
  0
LINE
  5
99
330
2
100
AcDbEntity
  8
0
  6
DASHDOT
 62
     3
100
AcDbLine
 10
169.5872298888289
 20
70.20869991634095
 30
0.0
 11
169.5872298888289
 21
118.2086999163409
 31
0.0
  0
LINE
  5
9A
330
2
100
AcDbEntity
  8
0
 62
     3
100
AcDbLine
 10
187.0872298888287
 20
108.2086999163409
 30
0.0
 11
152.0872298888289
 21
108.2086999163409
 31
0.0
  0
LINE
  5
9B
330
2
100
AcDbEntity
  8
0
 62
     3
100
AcDbLine
 10
154.5872298888289
 20
80.20869991634095
 30
0.0
 11
184.5872298888289
 21
80.20869991634095
 31
0.0
  0
LINE
  5
9C
330
2
100
AcDbEntity
  8
0
 62
     3
100
AcDbLine
 10
153.5872298888289
 20
81.20869991634094
 30
0.0
 11
185.5872298888288
 21
81.20869991634094
 31
0.0
  0
LINE
  5
9D
330
2
100
AcDbEntity
  8
0
 62
     3
100
AcDbLine
 10
185.5872298888288
 20
90.20869991634095
 30
0.0
 11
180.1489978888288
 21
90.20869991634095
 31
0.0
  0
ARC
  5
9E
330
2
100
AcDbEntity
  8
0
 62
     3
100
AcDbCircle
 10
179.7871798888287
 20
95.20869991634095
 30
0.0
 40
5.0
100
AcDbArc
 50
270.0
 51
306.869863
  0
LINE
  5
9F
330
2
100
AcDbEntity
  8
0
 62
     3
100
AcDbLine
 10
182.7871798888287
 20
104.2086999163409
 30
0.0
 11
172.3870338888288
 21
104.2086999163409
 31
0.0
  0
TEXT
  5
A0
330
2
100
AcDbEntity
  8
0
 62
     5
100
AcDbText
 10
144.9999999999999
 20
10.0
 30
0.0
 40
7.0
  1
Ｅ－３００１
 41
0.8247080633943149
 72
     5
 11
182.7166487658999
 21
10.0
 31
0.0
100
AcDbText
  0
LINE
  5
A1
330
2
100
AcDbEntity
  8
0
 62
     3
100
AcDbLine
 10
153.5872298888289
 20
104.2086999163409
 30
0.0
 11
153.5872298888289
 21
81.20869991634094
 31
0.0
  0
LINE
  5
A2
330
2
100
AcDbEntity
  8
0
 62
     3
100
AcDbLine
 10
153.5872298888289
 20
81.20869991634094
 30
0.0
 11
154.5872298888289
 21
80.20869991634095
 31
0.0
  0
LINE
  5
A3
330
2
100
AcDbEntity
  8
0
 62
     3
100
AcDbLine
 10
166.7871798888289
 20
104.2086999163409
 30
0.0
 11
156.3870338888289
 21
104.2086699163409
 31
0.0
  0
LINE
  5
A4
330
2
100
AcDbEntity
  8
0
 62
     3
100
AcDbLine
 10
156.3870338888289
 20
104.2086999163409
 30
0.0
 11
156.3870338888289
 21
91.20869991634092
 31
0.0
  0
LINE
  5
A5
330
2
100
AcDbEntity
  8
0
 62
     3
100
AcDbLine
 10
153.5872298888289
 20
90.20869991634095
 30
0.0
 11
159.0252178888289
 21
90.20869991634095
 31
0.0
  0
LINE
  5
A6
330
2
100
AcDbEntity
  8
0
 62
     3
100
AcDbLine
 10
153.5872298888289
 20
91.20869991634092
 30
0.0
 11
156.3870338888289
 21
91.20869991634092
 31
0.0
  0
ARC
  5
A7
330
2
100
AcDbEntity
  8
0
 62
     3
100
AcDbCircle
 10
159.3870338888289
 20
95.20869991634095
 30
0.0
 40
5.0
100
AcDbArc
 50
233.1299969999999
 51
270.0
  0
LINE
  5
A8
330
2
100
AcDbEntity
  8
0
 62
     3
100
AcDbLine
 10
153.5872298888289
 20
104.2086699163409
 30
0.0
 11
152.0872298888289
 21
104.2086999163409
 31
0.0
  0
LINE
  5
A9
330
2
100
AcDbEntity
  8
0
 62
     3
100
AcDbLine
 10
166.7871798888289
 20
104.2086999163409
 30
0.0
 11
166.7871798888289
 21
91.20869991634092
 31
0.0
  0
LINE
  5
AA
330
2
100
AcDbEntity
  8
0
 62
     3
100
AcDbLine
 10
172.3870338888288
 20
104.2086999163409
 30
0.0
 11
172.3870338888288
 21
91.20869991634092
 31
0.0
  0
LINE
  5
AB
330
2
100
AcDbEntity
  8
0
 62
     3
100
AcDbLine
 10
163.7871798888289
 20
90.20869991634095
 30
0.0
 11
175.3870338888288
 21
90.20869991634095
 31
0.0
  0
LINE
  5
AC
330
2
100
AcDbEntity
  8
0
 62
     3
100
AcDbLine
 10
166.7871798888289
 20
91.20869991634092
 30
0.0
 11
172.3870338888288
 21
91.20869991634092
 31
0.0
  0
ARC
  5
AD
330
2
100
AcDbEntity
  8
0
 62
     3
100
AcDbCircle
 10
163.7871798888289
 20
95.20869991634095
 30
0.0
 40
5.0
100
AcDbArc
 50
270.0
 51
306.869871
  0
ARC
  5
AE
330
2
100
AcDbEntity
  8
0
 62
     3
100
AcDbCircle
 10
175.3870338888288
 20
95.20869991634095
 30
0.0
 40
5.0
100
AcDbArc
 50
233.1299889999999
 51
270.0
  0
LINE
  5
AF
330
2
100
AcDbEntity
  8
0
 62
     3
100
AcDbLine
 10
185.5872298888288
 20
104.2086999163409
 30
0.0
 11
185.5872298888288
 21
81.20869991634094
 31
0.0
  0
LINE
  5
B0
330
2
100
AcDbEntity
  8
0
 62
     3
100
AcDbLine
 10
184.5872298888289
 20
80.20869991634095
 30
0.0
 11
185.5872298888288
 21
81.20869991634094
 31
0.0
  0
LINE
  5
B1
330
2
100
AcDbEntity
  8
0
 62
     3
100
AcDbLine
 10
182.7871798888287
 20
104.2086699163409
 30
0.0
 11
182.7871798888287
 21
91.20869991634092
 31
0.0
  0
LINE
  5
B2
330
2
100
AcDbEntity
  8
0
 62
     3
100
AcDbLine
 10
185.5872298888288
 20
91.20869991634092
 30
0.0
 11
182.7871798888287
 21
91.20869991634092
 31
0.0
  0
LINE
  5
B3
330
2
100
AcDbEntity
  8
0
 62
     3
100
AcDbLine
 10
187.0872298888287
 20
104.2086999163409
 30
0.0
 11
185.5872298888288
 21
104.2086999163409
 31
0.0
  0
LINE
  5
B4
330
2
100
AcDbEntity
  8
0
 62
     3
100
AcDbLine
 10
138.0874738888287
 20
134.7086999163409
 30
0.0
 11
195.6917218888288
 21
132.6970719163409
 31
0.0
  0
LINE
  5
B5
330
2
100
AcDbEntity
  8
0
 62
     3
100
AcDbLine
 10
136.0874738888287
 20
132.7086999163409
 30
0.0
 11
195.6917218888288
 21
130.6272179163409
 31
0.0
  0
LINE
  5
B6
330
2
100
AcDbEntity
  8
0
  6
DASHDOT
 62
     3
100
AcDbLine
 10
180.7871798888287
 20
122.6964919163409
 30
0.0
 11
198.3870338888288
 21
122.6964919163409
 31
0.0
  0
LINE
  5
B7
330
2
100
AcDbEntity
  8
0
 62
     3
100
AcDbLine
 10
133.0874738888287
 20
110.7086999163409
 30
0.0
 11
195.6394758888287
 21
111.8005279163409
 31
0.0
  0
LINE
  5
B8
330
2
100
AcDbEntity
  8
0
 62
     3
100
AcDbLine
 10
123.4368378888289
 20
115.6149499163409
 30
0.0
 11
119.8665258888289
 21
116.0116779163409
 31
0.0
  0
LINE
  5
B9
330
2
100
AcDbEntity
  8
0
 62
     3
100
AcDbLine
 10
126.2127178888289
 20
124.1679279163409
 30
0.0
 11
119.8367418888287
 21
124.9731039163409
 31
0.0
  0
LINE
  5
BA
330
2
100
AcDbEntity
  8
0
 62
     3
100
AcDbLine
 10
101.8467230323547
 20
118.9086839163409
 30
0.0
 11
101.8467270323546
 21
126.5086899163409
 31
0.0
  0
LINE
  5
BB
330
2
100
AcDbEntity
  8
0
 62
     3
100
AcDbLine
 10
102.8467270323546
 20
126.5086879163409
 30
0.0
 11
102.8467230323547
 21
118.9086819163409
 31
0.0
  0
ARC
  5
BC
330
2
100
AcDbEntity
  8
0
 62
     3
100
AcDbCircle
 10
96.44670103235467
 20
122.7086719163409
 30
0.0
 40
9.0
100
AcDbArc
 50
343.398322
 51
16.60152099999998
  0
ARC
  5
BD
330
2
100
AcDbEntity
  8
0
 62
     3
100
AcDbCircle
 10
103.8257290323546
 20
120.5086579163409
 30
0.0
 40
1.3
100
AcDbArc
 50
269.9993089999999
 51
343.398327
  0
LINE
  5
BE
330
2
100
AcDbEntity
  8
0
 62
     3
100
AcDbLine
 10
102.8467250323547
 20
121.5009059163409
 30
0.0
 11
101.8467250323547
 21
122.5012419163409
 31
0.0
  0
LINE
  5
BF
330
2
100
AcDbEntity
  8
0
 62
     3
100
AcDbLine
 10
103.8257270323546
 20
119.2086699163409
 30
0.0
 11
102.8466930323546
 21
119.2086699163409
 31
0.0
  0
LINE
  5
C0
330
2
100
AcDbEntity
  8
0
 62
     3
100
AcDbLine
 10
102.8467230323547
 20
118.9086819163409
 30
0.0
 11
101.8467230323547
 21
118.9086839163409
 31
0.0
  0
ARC
  5
C1
330
2
100
AcDbEntity
  8
0
 62
     3
100
AcDbCircle
 10
120.0874738888289
 20
117.9993799163409
 30
0.0
 40
2.0
100
AcDbArc
 50
179.9995629999999
 51
263.6574549999999
  0
ARC
  5
C2
330
2
100
AcDbEntity
  8
0
 62
     3
100
AcDbCircle
 10
103.8257290323546
 20
124.9086819163409
 30
0.0
 40
1.3
100
AcDbArc
 50
16.60099299999999
 51
90.0
  0
LINE
  5
C3
330
2
100
AcDbEntity
  8
0
 62
     3
100
AcDbLine
 10
102.8467250323547
 20
122.9153359163409
 30
0.0
 11
101.8467250323547
 21
123.9156719163409
 31
0.0
  0
LINE
  5
C4
330
2
100
AcDbEntity
  8
0
 62
     3
100
AcDbLine
 10
103.8257310323547
 20
126.2086699163409
 30
0.0
 11
102.8466950323547
 21
126.2086699163409
 31
0.0
  0
LINE
  5
C5
330
2
100
AcDbEntity
  8
0
 62
     3
100
AcDbLine
 10
101.8467270323546
 20
126.5086899163409
 30
0.0
 11
102.8467270323546
 21
126.5086879163409
 31
0.0
  0
ARC
  5
C6
330
2
100
AcDbEntity
  8
0
 62
     3
100
AcDbCircle
 10
120.0874738888289
 20
126.9574799163409
 30
0.0
 40
2.0
100
AcDbArc
 50
179.9995629999999
 51
262.7986419999999
  0
LINE
  5
C7
330
2
100
AcDbEntity
  8
0
 62
     3
100
AcDbLine
 10
133.0874738888287
 20
110.7088519163409
 30
0.0
 11
128.0874738888289
 21
110.7088519163409
 31
0.0
  0
ARC
  5
C8
330
2
100
AcDbEntity
  8
0
 62
     3
100
AcDbCircle
 10
135.3867898888289
 20
116.7084259163409
 30
0.0
 40
12.0
100
AcDbArc
 50
163.808153
 51
196.191226
  0
LINE
  5
C9
330
2
100
AcDbEntity
  8
0
 62
     3
100
AcDbLine
 10
126.6873278888289
 20
120.7086999163409
 30
0.0
 11
126.6873278888289
 21
112.7086999163409
 31
0.0
  0
LINE
  5
CA
330
2
100
AcDbEntity
  8
0
 62
     3
100
AcDbLine
 10
126.6873278888289
 20
112.2084559163409
 30
0.0
 11
126.6873278888289
 21
121.2084559163409
 31
0.0
  0
ARC
  5
CB
330
2
100
AcDbEntity
  8
0
 62
     3
100
AcDbCircle
 10
125.3992418888287
 20
113.8084619163409
 30
0.0
 40
1.6
100
AcDbArc
 50
196.1922989999998
 51
270.0
  0
LINE
  5
CC
330
2
100
AcDbEntity
  8
0
 62
     3
100
AcDbLine
 10
126.6873278888289
 20
112.7086999163409
 30
0.0
 11
127.0874738888289
 21
112.7086999163409
 31
0.0
  0
LINE
  5
CD
330
2
100
AcDbEntity
  8
0
 62
     3
100
AcDbLine
 10
125.3992418888287
 20
112.2084559163409
 30
0.0
 11
126.6868378888289
 21
112.2084559163409
 31
0.0
  0
ARC
  5
CE
330
2
100
AcDbEntity
  8
0
 62
     3
100
AcDbCircle
 10
128.0874738888289
 20
111.7090959163409
 30
0.0
 40
1.0
100
AcDbArc
 50
179.9991259999999
 51
270.0
  0
LINE
  5
CF
330
2
100
AcDbEntity
  8
0
  6
DASHDOT
 62
     3
100
AcDbLine
 10
129.9868878888289
 20
116.7084259163409
 30
0.0
 11
121.6868378888289
 21
116.7084559163409
 31
0.0
  0
ARC
  5
D0
330
2
100
AcDbEntity
  8
0
 62
     3
100
AcDbCircle
 10
125.3992418888287
 20
119.6084799163409
 30
0.0
 40
1.6
100
AcDbArc
 50
90.0
 51
163.8065629999998
  0
LINE
  5
D1
330
2
100
AcDbEntity
  8
0
 62
     3
100
AcDbLine
 10
125.3992418888287
 20
121.2084559163409
 30
0.0
 11
126.6868378888289
 21
121.2084559163409
 31
0.0
  0
LINE
  5
D2
330
2
100
AcDbEntity
  8
0
 62
     3
100
AcDbLine
 10
126.6873278888289
 20
120.7086999163409
 30
0.0
 11
127.0874738888289
 21
120.7086999163409
 31
0.0
  0
ARC
  5
D3
330
2
100
AcDbEntity
  8
0
 62
     3
100
AcDbCircle
 10
126.0874738888289
 20
123.1759839163409
 30
0.0
 40
1.0
100
AcDbArc
 50
0.0
 51
82.80383099999998
  0
LINE
  5
D4
330
2
100
AcDbEntity
  8
0
 62
     3
100
AcDbLine
 10
138.0874738888287
 20
134.7086999163409
 30
0.0
 11
136.0874738888287
 21
132.7086999163409
 31
0.0
  0
CIRCLE
  5
D5
330
2
100
AcDbEntity
  8
0
 62
     3
100
AcDbCircle
 10
176.7046618888288
 20
122.9479579163409
 30
0.0
 40
4.5
  0
LINE
  5
D6
330
2
100
AcDbEntity
  8
0
 62
     3
100
AcDbLine
 10
174.7046318888289
 20
121.4479559163409
 30
0.0
 11
178.7046618888289
 21
121.4482019163409
 31
0.0
  0
LINE
  5
D7
330
2
100
AcDbEntity
  8
0
 62
     3
100
AcDbLine
 10
175.7046318888288
 20
119.9482019163409
 30
0.0
 11
177.7046618888288
 21
119.9484459163409
 31
0.0
  0
LINE
  5
D8
330
2
100
AcDbEntity
  8
0
 62
     3
100
AcDbLine
 10
173.7046618888288
 20
122.947955916341
 30
0.0
 11
179.7046618888288
 21
122.9479579163409
 31
0.0
  0
LINE
  5
D9
330
2
100
AcDbEntity
  8
0
 62
     3
100
AcDbLine
 10
176.7046598888289
 20
125.4479579163409
 30
0.0
 11
176.7046618888288
 21
122.9479579163409
 31
0.0
  0
LINE
  5
DA
330
2
100
AcDbEntity
  8
0
  6
DASHDOT
 62
     3
100
AcDbLine
 10
195.0364478888289
 20
128.7086999163409
 30
0.0
 11
205.3421118888289
 21
128.7086999163409
 31
0.0
  0
ARC
  5
DB
330
2
100
AcDbEntity
  8
0
 62
     3
100
AcDbCircle
 10
188.1729218888288
 20
122.6964919163409
 30
0.0
 40
0.5
100
AcDbArc
 50
314.995083
 51
45.00243899999996
  0
ARC
  5
DC
330
2
100
AcDbEntity
  8
0
 62
     3
100
AcDbCircle
 10
191.0012918888288
 20
122.6964619163409
 30
0.0
 40
0.5
100
AcDbArc
 50
134.9950739999999
 51
225.002424
  0
CIRCLE
  5
DD
330
2
100
AcDbEntity
  8
0
 62
     3
100
AcDbCircle
 10
189.5872298888289
 20
122.6964919163409
 30
0.0
 40
3.799999999999998
  0
CIRCLE
  5
DE
330
2
100
AcDbEntity
  8
0
 62
     3
100
AcDbCircle
 10
189.5872298888289
 20
122.6964919163409
 30
0.0
 40
3.499998
  0
LINE
  5
DF
330
2
100
AcDbEntity
  8
0
  6
DASHDOT
 62
     3
100
AcDbLine
 10
189.5872298888289
 20
113.8964739163409
 30
0.0
 11
189.5872298888289
 21
131.4962979163409
 31
0.0
  0
LINE
  5
E0
330
2
100
AcDbEntity
  8
0
 62
     3
100
AcDbLine
 10
187.7840058888287
 20
121.6004539163409
 30
0.0
 11
188.5264378888289
 21
122.3429159163409
 31
0.0
  0
ARC
  5
E1
330
2
100
AcDbEntity
  8
0
 62
     3
100
AcDbCircle
 10
189.5869858888288
 20
121.2822779163409
 30
0.0
 40
0.5
100
AcDbArc
 50
44.982724
 51
134.997474
  0
LINE
  5
E2
330
2
100
AcDbEntity
  8
0
 62
     3
100
AcDbLine
 10
190.6477758888288
 20
122.3429159163409
 30
0.0
 11
191.3902078888288
 21
121.6004539163409
 31
0.0
  0
LINE
  5
E3
330
2
100
AcDbEntity
  8
0
 62
     3
100
AcDbLine
 10
188.4910378888287
 20
120.8933619163409
 30
0.0
 11
189.2334698888289
 21
121.6358239163409
 31
0.0
  0
LINE
  5
E4
330
2
100
AcDbEntity
  8
0
 62
     3
100
AcDbLine
 10
187.7840058888287
 20
121.6004539163409
 30
0.0
 11
188.4910378888287
 21
120.8933619163409
 31
0.0
  0
LINE
  5
E5
330
2
100
AcDbEntity
  8
0
 62
     3
100
AcDbLine
 10
189.9407458888289
 20
121.6358239163409
 30
0.0
 11
190.6831758888287
 21
120.8933619163409
 31
0.0
  0
LINE
  5
E6
330
2
100
AcDbEntity
  8
0
 62
     3
100
AcDbLine
 10
190.6831758888287
 20
120.8933619163409
 30
0.0
 11
191.3902078888288
 21
121.6004539163409
 31
0.0
  0
ARC
  5
E7
330
2
100
AcDbEntity
  8
0
 62
     3
100
AcDbCircle
 10
195.5872298888287
 20
114.8000699163409
 30
0.0
 40
3.0
100
AcDbArc
 50
270.997587
 51
0.0
  0
LINE
  5
E8
330
2
100
AcDbEntity
  8
0
 62
     3
100
AcDbLine
 10
188.4912818888288
 20
124.4994719163409
 30
0.0
 11
189.2334698888289
 21
123.7571319163409
 31
0.0
  0
LINE
  5
E9
330
2
100
AcDbEntity
  8
0
 62
     3
100
AcDbLine
 10
187.7840058888287
 20
123.7923479163409
 30
0.0
 11
188.4912818888288
 21
124.4994719163409
 31
0.0
  0
LINE
  5
EA
330
2
100
AcDbEntity
  8
0
 62
     3
100
AcDbLine
 10
187.7840058888287
 20
123.7923479163409
 30
0.0
 11
188.5264378888289
 21
123.0500379163409
 31
0.0
  0
ARC
  5
EB
330
2
100
AcDbEntity
  8
0
 62
     3
100
AcDbCircle
 10
189.5872298888289
 20
124.1106779163409
 30
0.0
 40
0.5
100
AcDbArc
 50
224.98271
 51
314.997484
  0
LINE
  5
EC
330
2
100
AcDbEntity
  8
0
 62
     3
100
AcDbLine
 10
189.9407458888289
 20
123.7571319163409
 30
0.0
 11
190.6831758888287
 21
124.4995939163409
 31
0.0
  0
LINE
  5
ED
330
2
100
AcDbEntity
  8
0
 62
     3
100
AcDbLine
 10
190.6831758888287
 20
124.4995939163409
 30
0.0
 11
191.3902078888288
 21
123.7924699163409
 31
0.0
  0
LINE
  5
EE
330
2
100
AcDbEntity
  8
0
 62
     3
100
AcDbLine
 10
190.6477758888288
 20
123.0500379163409
 30
0.0
 11
191.3902078888288
 21
123.7924699163409
 31
0.0
  0
LINE
  5
EF
330
2
100
AcDbEntity
  8
0
 62
     3
100
AcDbLine
 10
199.5874738888288
 20
123.7086999163409
 30
0.0
 11
199.5874738888288
 21
133.7086999163409
 31
0.0
  0
ARC
  5
F0
330
2
100
AcDbEntity
  8
0
 62
     3
100
AcDbCircle
 10
195.5874738888289
 20
127.6290479163409
 30
0.0
 40
3.0
100
AcDbArc
 50
0.0
 51
88.00394500000004
  0
LINE
  5
F1
330
2
100
AcDbEntity
  8
0
 62
     3
100
AcDbLine
 10
198.5874738888288
 20
123.7086999163409
 30
0.0
 11
199.5874738888288
 21
123.7086999163409
 31
0.0
  0
ARC
  5
F2
330
2
100
AcDbEntity
  8
0
 62
     3
100
AcDbCircle
 10
195.5874738888289
 20
129.6989039163409
 30
0.0
 40
3.0
100
AcDbArc
 50
0.0
 51
88.00394500000004
  0
LINE
  5
F3
330
2
100
AcDbEntity
  8
0
 62
     3
100
AcDbLine
 10
198.5874738888288
 20
133.7086999163409
 30
0.0
 11
199.5874738888288
 21
133.7086999163409
 31
0.0
  0
CIRCLE
  5
F4
330
2
100
AcDbEntity
  8
0
 62
     3
100
AcDbCircle
 10
95.84676103235471
 20
254.7086999163409
 30
0.0
 40
4.499997999999997
  0
LINE
  5
F5
330
2
100
AcDbEntity
  8
0
  6
DASHDOT
 62
     3
100
AcDbLine
 10
86.24666303235471
 20
254.7086999163409
 30
0.0
 11
105.4466130323546
 21
254.7086999163409
 31
0.0
  0
LINE
  5
F6
330
2
100
AcDbEntity
  8
0
 62
     3
100
AcDbLine
 10
97.2609450323547
 20
255.4157299163409
 30
0.0
 11
99.36275103235471
 21
257.5170499163409
 31
0.0
  0
ARC
  5
F7
330
2
100
AcDbEntity
  8
0
 62
     3
100
AcDbCircle
 10
95.84676103235471
 20
254.708455916341
 30
0.0
 40
6.0
100
AcDbArc
 50
0.0
 51
90.0
  0
LINE
  5
101
330
2
100
AcDbEntity
  8
0
100
AcDbLine
 10
210.0
 20
297.0
 30
0.0
 11
0.0
 21
297.0
 31
0.0
  0
LINE
  5
102
330
2
100
AcDbEntity
  8
0
  6
DASHDOT
 62
     3
100
AcDbLine
 10
12.24666303235471
 20
254.708455916341
 30
0.0
 11
31.44661303235466
 21
254.708455916341
 31
0.0
  0
ARC
  5
103
330
2
100
AcDbEntity
  8
0
 62
     3
100
AcDbCircle
 10
21.84676103235472
 20
254.708455916341
 30
0.0
 40
6.0
100
AcDbArc
 50
89.99985399999998
 51
180.0
  0
LINE
  5
104
330
2
100
AcDbEntity
  8
0
 62
     3
100
AcDbLine
 10
95.84672903235469
 20
260.708699916341
 30
0.0
 11
21.84679103235475
 21
260.708699916341
 31
0.0
  0
LINE
  5
105
330
2
100
AcDbEntity
  8
0
 62
     3
100
AcDbLine
 10
84.62178503235476
 20
256.208699916341
 30
0.0
 11
33.0717350323548
 21
256.208699916341
 31
0.0
  0
LINE
  5
106
330
2
100
AcDbEntity
  8
0
 62
     3
100
AcDbLine
 10
84.62178503235476
 20
255.2086999163408
 30
0.0
 11
33.0717350323548
 21
255.2086999163408
 31
0.0
  0
ARC
  5
107
330
2
100
AcDbEntity
  8
0
 62
     3
100
AcDbCircle
 10
24.34672903235469
 20
243.483601916341
 30
0.0
 40
4.0
100
AcDbArc
 50
102.555502
 51
180.0
  0
ARC
  5
108
330
2
100
AcDbEntity
  8
0
 62
     3
100
AcDbCircle
 10
24.34672903235469
 20
243.483601916341
 30
0.0
 40
3.0
100
AcDbArc
 50
102.555043
 51
180.0
  0
LINE
  5
109
330
2
100
AcDbEntity
  8
0
  6
DASHDOT
 62
     3
100
AcDbLine
 10
28.84672903235468
 20
234.7082119163409
 30
0.0
 11
28.84679103235475
 21
250.708455916341
 31
0.0
  0
LINE
  5
10A
330
2
100
AcDbEntity
  8
0
  6
DASHDOT
 62
     3
100
AcDbLine
 10
36.84676103235472
 20
242.708211916341
 30
0.0
 11
20.84676103235472
 21
242.708699916341
 31
0.0
  0
CIRCLE
  5
10B
330
2
100
AcDbEntity
  8
0
 62
     3
100
AcDbCircle
 10
21.84676103235472
 20
254.708455916341
 30
0.0
 40
4.499997999999997
  0
LINE
  5
10C
330
2
100
AcDbEntity
  8
0
  6
DASHDOT
 62
     3
100
AcDbLine
 10
21.84676103235472
 20
245.108357916341
 30
0.0
 11
21.84676103235472
 21
264.3083099163408
 31
0.0
  0
ARC
  5
10D
330
2
100
AcDbEntity
  8
0
 62
     3
100
AcDbCircle
 10
21.84676103235472
 20
254.7086999163409
 30
0.0
 40
7.5
100
AcDbArc
 50
282.555587
 51
347.4427439999998
  0
ARC
  5
10E
330
2
100
AcDbEntity
  8
0
 62
     3
100
AcDbCircle
 10
21.84676103235472
 20
254.7086999163409
 30
0.0
 40
8.5
100
AcDbArc
 50
282.555716
 51
347.443637
  0
LINE
  5
10F
330
2
100
AcDbEntity
  8
0
 62
     3
100
AcDbLine
 10
19.03801303235468
 20
251.1925859163409
 30
0.0
 11
21.13963703235481
 21
253.2941479163409
 31
0.0
  0
ARC
  5
110
330
2
100
AcDbEntity
  8
0
 62
     3
100
AcDbCircle
 10
21.84676103235472
 20
256.8295499163409
 30
0.0
 40
1.0
100
AcDbArc
 50
224.996909
 51
315.002473
  0
ARC
  5
111
330
2
100
AcDbEntity
  8
0
 62
     3
100
AcDbCircle
 10
21.84672903235469
 20
252.5871179163408
 30
0.0
 40
1.0
100
AcDbArc
 50
44.99567299999998
 51
135.002473
  0
ARC
  5
112
330
2
100
AcDbEntity
  8
0
 62
     3
100
AcDbCircle
 10
19.72542303235468
 20
254.708455916341
 30
0.0
 40
1.0
100
AcDbArc
 50
314.9938179999998
 51
44.99567300000001
  0
LINE
  5
113
330
2
100
AcDbEntity
  8
0
 62
     3
100
AcDbLine
 10
19.79613103235465
 20
256.0517179163408
 30
0.0
 11
20.43254503235471
 21
255.4154859163409
 31
0.0
  0
LINE
  5
114
330
2
100
AcDbEntity
  8
0
 62
     3
100
AcDbLine
 10
18.33095303235472
 20
251.8996179163409
 30
0.0
 11
20.43254503235471
 21
254.0011799163409
 31
0.0
  0
LINE
  5
115
330
2
100
AcDbEntity
  8
0
 62
     3
100
AcDbLine
 10
19.79613103235465
 20
256.0517179163408
 30
0.0
 11
20.50325503235467
 21
256.7589919163409
 31
0.0
  0
LINE
  5
116
330
2
100
AcDbEntity
  8
0
 62
     3
100
AcDbLine
 10
20.50325503235467
 20
256.7589919163409
 30
0.0
 11
21.13963703235481
 21
256.122517916341
 31
0.0
  0
ARC
  5
117
330
2
100
AcDbEntity
  8
0
 62
     3
100
AcDbCircle
 10
23.96806703235472
 20
254.7082119163408
 30
0.0
 40
1.0
100
AcDbArc
 50
134.993818
 51
224.996909
  0
LINE
  5
118
330
2
100
AcDbEntity
  8
0
 62
     3
100
AcDbLine
 10
22.5538530323547
 20
253.2941479163409
 30
0.0
 11
23.19026703235476
 21
252.6576739163409
 31
0.0
  0
LINE
  5
119
330
2
100
AcDbEntity
  8
0
 62
     3
100
AcDbLine
 10
23.19026703235476
 20
252.6576739163409
 30
0.0
 11
23.89735903235475
 21
253.3647059163409
 31
0.0
  0
LINE
  5
11A
330
2
100
AcDbEntity
  8
0
 62
     3
100
AcDbLine
 10
23.26094503235481
 20
254.0011799163409
 30
0.0
 11
23.89735903235475
 21
253.3647059163409
 31
0.0
  0
LINE
  5
11B
330
2
100
AcDbEntity
  8
0
 62
     3
100
AcDbLine
 10
22.5538530323547
 20
256.122517916341
 30
0.0
 11
24.65529303235473
 21
258.224323916341
 31
0.0
  0
LINE
  5
11C
330
2
100
AcDbEntity
  8
0
 62
     3
100
AcDbLine
 10
23.26094503235481
 20
255.4154859163409
 30
0.0
 11
25.36275103235471
 21
257.5168059163408
 31
0.0
  0
ARC
  5
11D
330
2
100
AcDbEntity
  8
0
 62
     3
100
AcDbCircle
 10
33.0717350323548
 20
252.208699916341
 30
0.0
 40
3.0
100
AcDbArc
 50
89.99970899999999
 51
167.4455889999999
  0
ARC
  5
11E
330
2
100
AcDbEntity
  8
0
 62
     3
100
AcDbCircle
 10
33.0717350323548
 20
252.208699916341
 30
0.0
 40
4.0
100
AcDbArc
 50
89.99978099999998
 51
167.446774
  0
ARC
  5
11F
330
2
100
AcDbEntity
  8
0
 62
     3
100
AcDbCircle
 10
93.34676103235471
 20
243.483601916341
 30
0.0
 40
4.0
100
AcDbArc
 50
0.0
 51
77.44449799999998
  0
ARC
  5
120
330
2
100
AcDbEntity
  8
0
 62
     3
100
AcDbCircle
 10
93.34676103235471
 20
243.483601916341
 30
0.0
 40
3.0
100
AcDbArc
 50
0.0
 51
77.44438800000001
  0
LINE
  5
121
330
2
100
AcDbEntity
  8
0
  6
DASHDOT
 62
     3
100
AcDbLine
 10
88.84676103235472
 20
234.7082119163409
 30
0.0
 11
88.84672903235466
 21
250.7086999163409
 31
0.0
  0
LINE
  5
122
330
2
100
AcDbEntity
  8
0
  6
DASHDOT
 62
     3
100
AcDbLine
 10
80.84672903235469
 20
242.708211916341
 30
0.0
 11
96.84676103235473
 21
242.708699916341
 31
0.0
  0
LINE
  5
123
330
2
100
AcDbEntity
  8
0
  6
DASHDOT
 62
     3
100
AcDbLine
 10
95.84676103235471
 20
245.108601916341
 30
0.0
 11
95.84676103235471
 21
264.308553916341
 31
0.0
  0
ARC
  5
124
330
2
100
AcDbEntity
  8
0
 62
     3
100
AcDbCircle
 10
84.62178503235476
 20
252.208699916341
 30
0.0
 40
4.0
100
AcDbArc
 50
12.55322599999999
 51
90.0
  0
ARC
  5
125
330
2
100
AcDbEntity
  8
0
 62
     3
100
AcDbCircle
 10
95.84676103235471
 20
254.7086999163409
 30
0.0
 40
7.5
100
AcDbArc
 50
192.5571419999999
 51
257.4441859999999
  0
ARC
  5
126
330
2
100
AcDbEntity
  8
0
 62
     3
100
AcDbCircle
 10
95.84676103235471
 20
254.7086999163409
 30
0.0
 40
8.5
100
AcDbArc
 50
192.5563629999999
 51
257.444161
  0
ARC
  5
127
330
2
100
AcDbEntity
  8
0
 62
     3
100
AcDbCircle
 10
84.62178503235476
 20
252.208699916341
 30
0.0
 40
3.0
100
AcDbArc
 50
12.554411
 51
90.0
  0
LINE
  5
128
330
2
100
AcDbEntity
  8
0
 62
     3
100
AcDbLine
 10
93.03801303235468
 20
251.192829916341
 30
0.0
 11
95.1396370323547
 21
253.294393916341
 31
0.0
  0
LINE
  5
129
330
2
100
AcDbEntity
  8
0
 62
     3
100
AcDbLine
 10
92.33095303235472
 20
251.8998619163409
 30
0.0
 11
94.4325450323547
 21
254.0014239163409
 31
0.0
  0
LINE
  5
12A
330
2
100
AcDbEntity
  8
0
 62
     3
100
AcDbLine
 10
93.79613103235476
 20
256.051961916341
 30
0.0
 11
94.4325450323547
 21
255.4157299163409
 31
0.0
  0
LINE
  5
12B
330
2
100
AcDbEntity
  8
0
 62
     3
100
AcDbLine
 10
93.79613103235476
 20
256.051961916341
 30
0.0
 11
94.50325503235466
 21
256.7592359163409
 31
0.0
  0
LINE
  5
12C
330
2
100
AcDbEntity
  8
0
 62
     3
100
AcDbLine
 10
97.19026703235478
 20
252.6579179163408
 30
0.0
 11
97.89735903235476
 21
253.364949916341
 31
0.0
  0
ARC
  5
12D
330
2
100
AcDbEntity
  8
0
 62
     3
100
AcDbCircle
 10
97.96806703235473
 20
254.708455916341
 30
0.0
 40
1.0
100
AcDbArc
 50
134.994436
 51
224.996291
  0
LINE
  5
12E
330
2
100
AcDbEntity
  8
0
 62
     3
100
AcDbLine
 10
97.2609450323547
 20
254.0014239163409
 30
0.0
 11
97.89735903235476
 21
253.364949916341
 31
0.0
  0
LINE
  5
12F
330
2
100
AcDbEntity
  8
0
 62
     3
100
AcDbLine
 10
96.55385303235471
 20
253.294393916341
 30
0.0
 11
97.19026703235478
 21
252.6579179163408
 31
0.0
  0
ARC
  5
130
330
2
100
AcDbEntity
  8
0
 62
     3
100
AcDbCircle
 10
93.72542303235467
 20
254.7086999163409
 30
0.0
 40
1.0
100
AcDbArc
 50
314.9932
 51
44.99629099999999
  0
ARC
  5
131
330
2
100
AcDbEntity
  8
0
 62
     3
100
AcDbCircle
 10
95.84676103235471
 20
256.8297939163409
 30
0.0
 40
1.0
100
AcDbArc
 50
224.996291
 51
315.0018549999998
  0
ARC
  5
132
330
2
100
AcDbEntity
  8
0
 62
     3
100
AcDbCircle
 10
95.84672903235469
 20
252.5873619163409
 30
0.0
 40
1.0
100
AcDbArc
 50
44.996291
 51
135.0030909999998
  0
LINE
  5
133
330
2
100
AcDbEntity
  8
0
 62
     3
100
AcDbLine
 10
94.50325503235466
 20
256.7592359163409
 30
0.0
 11
95.1396370323547
 21
256.122761916341
 31
0.0
  0
LINE
  5
134
330
2
100
AcDbEntity
  8
0
 62
     3
100
AcDbLine
 10
96.55385303235471
 20
256.122761916341
 30
0.0
 11
98.65529303235474
 21
258.2245679163408
 31
0.0
  0
LINE
  5
137
330
2
100
AcDbEntity
  8
0
 62
     3
100
AcDbLine
 10
138.0874738888287
 20
236.708699916341
 30
0.0
 11
195.6917218888288
 21
238.7201739163409
 31
0.0
  0
LINE
  5
138
330
2
100
AcDbEntity
  8
0
 62
     3
100
AcDbLine
 10
136.0874738888287
 20
238.708699916341
 30
0.0
 11
195.6917218888288
 21
240.7899979163409
 31
0.0
  0
LINE
  5
139
330
2
100
AcDbEntity
  8
0
 62
     3
100
AcDbLine
 10
133.0874738888287
 20
260.708699916341
 30
0.0
 11
195.6394758888287
 21
259.6166579163408
 31
0.0
  0
ARC
  5
13E
330
2
100
AcDbEntity
  8
0
 62
     3
100
AcDbCircle
 10
120.0874738888289
 20
244.4599199163409
 30
0.0
 40
2.0
100
AcDbArc
 50
97.20133
 51
180.0
  0
LINE
  5
13F
330
2
100
AcDbEntity
  8
0
 62
     3
100
AcDbLine
 10
138.0874738888287
 20
236.708699916341
 30
0.0
 11
136.0874738888287
 21
238.708699916341
 31
0.0
  0
LINE
  5
140
330
2
100
AcDbEntity
  8
0
 62
     3
100
AcDbLine
 10
123.4368378888289
 20
255.802449916341
 30
0.0
 11
119.8665258888289
 21
255.405721916341
 31
0.0
  0
LINE
  5
141
330
2
100
AcDbEntity
  8
0
 62
     3
100
AcDbLine
 10
126.2127178888289
 20
247.249471916341
 30
0.0
 11
119.8367418888287
 21
246.444295916341
 31
0.0
  0
ARC
  5
142
330
2
100
AcDbEntity
  8
0
 62
     3
100
AcDbCircle
 10
120.0874738888289
 20
253.417927916341
 30
0.0
 40
2.0
100
AcDbArc
 50
96.34251800000001
 51
180.0
  0
ARC
  5
143
330
2
100
AcDbEntity
  8
0
 62
     3
100
AcDbCircle
 10
125.3992418888287
 20
257.6088459163409
 30
0.0
 40
1.6
100
AcDbArc
 50
90.0
 51
163.810799
  0
LINE
  5
144
330
2
100
AcDbEntity
  8
0
 62
     3
100
AcDbLine
 10
126.6873278888289
 20
250.7086999163409
 30
0.0
 11
126.6873278888289
 21
258.708699916341
 31
0.0
  0
LINE
  5
145
330
2
100
AcDbEntity
  8
0
 62
     3
100
AcDbLine
 10
126.6873278888289
 20
259.2086999163409
 30
0.0
 11
126.6873278888289
 21
250.208699916341
 31
0.0
  0
ARC
  5
146
330
2
100
AcDbEntity
  8
0
 62
     3
100
AcDbCircle
 10
135.3867898888289
 20
254.7086999163409
 30
0.0
 40
12.0
100
AcDbArc
 50
163.8083189999998
 51
196.190516
  0
ARC
  5
147
330
2
100
AcDbEntity
  8
0
 62
     3
100
AcDbCircle
 10
125.3992418888287
 20
251.808797916341
 30
0.0
 40
1.6
100
AcDbArc
 50
196.189132
 51
270.0
  0
LINE
  5
148
330
2
100
AcDbEntity
  8
0
 62
     3
100
AcDbLine
 10
126.6873278888289
 20
250.7086999163409
 30
0.0
 11
127.0874738888289
 21
250.7086999163409
 31
0.0
  0
LINE
  5
149
330
2
100
AcDbEntity
  8
0
 62
     3
100
AcDbLine
 10
125.3992418888287
 20
250.2089439163408
 30
0.0
 11
126.6868378888289
 21
250.208699916341
 31
0.0
  0
ARC
  5
14A
330
2
100
AcDbEntity
  8
0
 62
     3
100
AcDbCircle
 10
126.0874738888289
 20
248.241413916341
 30
0.0
 40
1.0
100
AcDbArc
 50
277.196098
 51
0.0
  0
LINE
  5
14B
330
2
100
AcDbEntity
  8
0
  6
DASHDOT
 62
     3
100
AcDbLine
 10
129.9868878888289
 20
254.7086999163409
 30
0.0
 11
121.6868378888289
 21
254.7089439163408
 31
0.0
  0
LINE
  5
14C
330
2
100
AcDbEntity
  8
0
 62
     3
100
AcDbLine
 10
133.0874738888287
 20
260.708455916341
 30
0.0
 11
128.0874738888289
 21
260.708455916341
 31
0.0
  0
LINE
  5
14D
330
2
100
AcDbEntity
  8
0
 62
     3
100
AcDbLine
 10
126.6873278888289
 20
258.708699916341
 30
0.0
 11
127.0874738888289
 21
258.708699916341
 31
0.0
  0
LINE
  5
14E
330
2
100
AcDbEntity
  8
0
 62
     3
100
AcDbLine
 10
125.3992418888287
 20
259.2086999163409
 30
0.0
 11
126.6868378888289
 21
259.2086999163409
 31
0.0
  0
ARC
  5
14F
330
2
100
AcDbEntity
  8
0
 62
     3
100
AcDbCircle
 10
128.0874738888289
 20
259.7082119163409
 30
0.0
 40
1.0
100
AcDbArc
 50
90.0
 51
180.0
  0
LINE
  5
154
330
2
100
AcDbEntity
  8
0
 62
     3
100
AcDbLine
 10
199.5874738888288
 20
247.708699916341
 30
0.0
 11
199.5874738888288
 21
237.708699916341
 31
0.0
  0
LINE
  5
155
330
2
100
AcDbEntity
  8
0
  6
DASHDOT
 62
     3
100
AcDbLine
 10
195.0364478888289
 20
242.708699916341
 30
0.0
 11
205.3421118888289
 21
242.708699916341
 31
0.0
  0
LINE
  5
156
330
2
100
AcDbEntity
  8
0
 62
     3
100
AcDbLine
 10
198.5874738888288
 20
237.708699916341
 30
0.0
 11
199.5874738888288
 21
237.708699916341
 31
0.0
  0
ARC
  5
157
330
2
100
AcDbEntity
  8
0
 62
     3
100
AcDbCircle
 10
195.5874738888289
 20
241.7184659163408
 30
0.0
 40
3.0
100
AcDbArc
 50
271.995763
 51
0.0
  0
ARC
  5
158
330
2
100
AcDbEntity
  8
0
 62
     3
100
AcDbCircle
 10
195.5874738888289
 20
243.788289916341
 30
0.0
 40
3.0
100
AcDbArc
 50
271.995763
 51
0.0
  0
ARC
  5
159
330
2
100
AcDbEntity
  8
0
 62
     3
100
AcDbCircle
 10
195.5872298888287
 20
256.6171479163409
 30
0.0
 40
3.0
100
AcDbArc
 50
0.0
 51
89.002122
  0
LINE
  5
15A
330
2
100
AcDbEntity
  8
0
 62
     3
100
AcDbLine
 10
198.5874738888288
 20
247.708699916341
 30
0.0
 11
199.5874738888288
 21
247.708699916341
 31
0.0
  0
TEXT
  5
16E
330
2
100
AcDbEntity
  8
0
 62
     7
100
AcDbText
 10
146.0
 20
35.00000295525
 30
0.0
 40
2.999994089499998
  1
AGAW211Y
 11
146.0
 21
36.5
 31
0.0
100
AcDbText
 73
     2
  0
ENDSEC
  0
SECTION
  2
OBJECTS
  0
DICTIONARY
  5
7
330
0
100
AcDbDictionary
281
     1
  3
ACAD_GROUP
350
1F
  3
ACAD_LAYOUT
350
B
  3
ACAD_MLINESTYLE
350
20
  3
ACAD_PLOTSETTINGS
350
21
  3
ACAD_PLOTSTYLENAME
350
6
  3
AcDbVariableDictionary
350
16F
  0
DICTIONARY
  5
1F
102
{ACAD_REACTORS
330
7
102
}
330
7
100
AcDbDictionary
281
     1
  0
DICTIONARY
  5
B
102
{ACAD_REACTORS
330
7
102
}
330
7
100
AcDbDictionary
281
     1
  3
Model
350
A
  3
ﾚｲｱｳﾄ1
350
F
  0
DICTIONARY
  5
20
102
{ACAD_REACTORS
330
7
102
}
330
7
100
AcDbDictionary
281
     1
  3
Standard
350
22
  0
DICTIONARY
  5
21
102
{ACAD_REACTORS
330
7
102
}
330
7
100
AcDbDictionary
281
     1
  0
ACDBDICTIONARYWDFLT
  5
6
102
{ACAD_REACTORS
330
7
102
}
330
7
100
AcDbDictionary
281
     1
  3
Normal
350
5
100
AcDbDictionaryWithDefault
340
5
  0
DICTIONARY
  5
16F
102
{ACAD_REACTORS
330
7
102
}
330
7
100
AcDbDictionary
281
     1
  3
DIMASSOC
350
170
  0
LAYOUT
  5
A
102
{ACAD_REACTORS
330
B
102
}
330
B
100
AcDbPlotSettings
  1

  2
C:\Program Files\AutoCAD 2000i\plotters\DWF Classic.pc3
  4

  6

 40
0.0
 41
0.0
 42
0.0
 43
0.0
 44
0.0
 45
0.0
 46
0.0
 47
0.0
 48
0.0
 49
0.0
140
0.0
141
0.0
142
1.0
143
1.0
 70
  1712
 72
     0
 73
     0
 74
     0
  7

 75
     0
147
1.0
148
0.0
149
0.0
100
AcDbLayout
  1
Model
 70
     1
 71
     0
 10
0.0
 20
0.0
 11
12.0
 21
9.0
 12
0.0
 22
0.0
 32
0.0
 14
0.0
 24
0.0
 34
0.0
 15
0.0
 25
0.0
 35
0.0
146
0.0
 13
0.0
 23
0.0
 33
0.0
 16
1.0
 26
0.0
 36
0.0
 17
0.0
 27
1.0
 37
0.0
 76
     0
330
2
  0
LAYOUT
  5
F
102
{ACAD_REACTORS
330
B
102
}
330
B
100
AcDbPlotSettings
  1

  2
C:\Program Files\AutoCAD 2000i\plotters\DWF Classic.pc3
  4

  6

 40
0.0
 41
0.0
 42
0.0
 43
0.0
 44
0.0
 45
0.0
 46
0.0
 47
0.0
 48
0.0
 49
0.0
140
0.0
141
0.0
142
1.0
143
1.0
 70
   688
 72
     0
 73
     0
 74
     5
  7

 75
    16
147
1.0
148
0.0
149
0.0
100
AcDbLayout
  1
ﾚｲｱｳﾄ1
 70
     1
 71
     1
 10
0.0
 20
0.0
 11
12.0
 21
9.0
 12
0.0
 22
0.0
 32
0.0
 14
1.000000000000000E+20
 24
1.000000000000000E+20
 34
1.000000000000000E+20
 15
-1.000000000000000E+20
 25
-1.000000000000000E+20
 35
-1.000000000000000E+20
146
0.0
 13
0.0
 23
0.0
 33
0.0
 16
1.0
 26
0.0
 36
0.0
 17
0.0
 27
1.0
 37
0.0
 76
     0
330
C
  0
MLINESTYLE
  5
22
102
{ACAD_REACTORS
330
20
102
}
330
20
100
AcDbMlineStyle
  2
STANDARD
 70
     0
  3

 62
   256
 51
90.0
 52
90.0
 71
     2
 49
0.5
 62
   256
  6
BYLAYER
 49
-0.5
 62
   256
  6
BYLAYER
  0
ACDBPLACEHOLDER
  5
5
102
{ACAD_REACTORS
330
6
102
}
330
6
  0
DICTIONARYVAR
  5
170
102
{ACAD_REACTORS
330
16F
102
}
330
16F
100
DictionaryVariables
280
     0
  1
1
  0
ENDSEC
  0
EOF
