  0
SECTION
  2
HEADER
  9
$ACADVER
  1
AC1015
  9
$ACADMAINTVER
 70
    20
  9
$DWGCODEPAGE
  3
ANSI_932
  9
$INSBASE
 10
0.0
 20
0.0
 30
0.0
  9
$EXTMIN
 10
0.0
 20
0.0
 30
0.0
  9
$EXTMAX
 10
210.0
 20
297.0
 30
0.0
  9
$LIMMIN
 10
-181.5239990233999
 20
-3.174999999999998
  9
$LIMMAX
 10
3.174999999999998
 20
291.2585876465
  9
$ORTHOMODE
 70
     0
  9
$REGENMODE
 70
     1
  9
$FILLMODE
 70
     1
  9
$QTEXTMODE
 70
     0
  9
$MIRRTEXT
 70
     0
  9
$LTSCALE
 40
1.0
  9
$ATTMODE
 70
     1
  9
$TEXTSIZE
 40
2.999994039499997
  9
$TRACEWID
 40
0.05
  9
$TEXTSTYLE
  7
STANDARD
  9
$CLAYER
  8
0
  9
$CELTYPE
  6
ByLayer
  9
$CECOLOR
 62
   256
  9
$CELTSCALE
 40
1.0
  9
$DISPSILH
 70
     0
  9
$DIMSCALE
 40
1.0
  9
$DIMASZ
 40
1.9727878465
  9
$DIMEXO
 40
2.539999961899999
  9
$DIMDLI
 40
0.38
  9
$DIMRND
 40
0.0
  9
$DIMDLE
 40
0.0
  9
$DIMEXE
 40
3.809999942799997
  9
$DIMTP
 40
0.0
  9
$DIMTM
 40
0.0
  9
$DIMTXT
 40
2.999994039499997
  9
$DIMCEN
 40
0.09
  9
$DIMTSZ
 40
0.0
  9
$DIMTOL
 70
     0
  9
$DIMLIM
 70
     0
  9
$DIMTIH
 70
     0
  9
$DIMTOH
 70
     1
  9
$DIMSE1
 70
     0
  9
$DIMSE2
 70
     0
  9
$DIMTAD
 70
     0
  9
$DIMZIN
 70
     0
  9
$DIMBLK
  1

  9
$DIMASO
 70
     1
  9
$DIMSHO
 70
     0
  9
$DIMPOST
  1

  9
$DIMAPOST
  1

  9
$DIMALT
 70
     0
  9
$DIMALTD
 70
     2
  9
$DIMALTF
 40
25.4
  9
$DIMLFAC
 40
1.0
  9
$DIMTOFL
 70
     0
  9
$DIMTVP
 40
0.0
  9
$DIMTIX
 70
     0
  9
$DIMSOXD
 70
     0
  9
$DIMSAH
 70
     0
  9
$DIMBLK1
  1

  9
$DIMBLK2
  1

  9
$DIMSTYLE
  2
Standard
  9
$DIMCLRD
 70
     0
  9
$DIMCLRE
 70
     0
  9
$DIMCLRT
 70
     0
  9
$DIMTFAC
 40
1.0
  9
$DIMGAP
 40
0.09
  9
$DIMJUST
 70
     0
  9
$DIMSD1
 70
     0
  9
$DIMSD2
 70
     0
  9
$DIMTOLJ
 70
     1
  9
$DIMTZIN
 70
     0
  9
$DIMALTZ
 70
     0
  9
$DIMALTTZ
 70
     0
  9
$DIMUPT
 70
     0
  9
$DIMDEC
 70
     4
  9
$DIMTDEC
 70
     4
  9
$DIMALTU
 70
     2
  9
$DIMALTTD
 70
     2
  9
$DIMTXSTY
  7
STANDARD
  9
$DIMAUNIT
 70
     0
  9
$DIMADEC
 70
     0
  9
$DIMALTRND
 40
0.0
  9
$DIMAZIN
 70
     0
  9
$DIMDSEP
 70
    46
  9
$DIMATFIT
 70
     3
  9
$DIMFRAC
 70
     0
  9
$DIMLDRBLK
  1

  9
$DIMLUNIT
 70
     2
  9
$DIMLWD
 70
    -2
  9
$DIMLWE
 70
    -2
  9
$DIMTMOVE
 70
     0
  9
$LUNITS
 70
     2
  9
$LUPREC
 70
     3
  9
$SKETCHINC
 40
0.1
  9
$FILLETRAD
 40
0.0625
  9
$AUNITS
 70
     0
  9
$AUPREC
 70
     0
  9
$MENU
  1
ACAD
  9
$ELEVATION
 40
0.0
  9
$PELEVATION
 40
0.0
  9
$THICKNESS
 40
0.0
  9
$LIMCHECK
 70
     0
  9
$CHAMFERA
 40
0.0
  9
$CHAMFERB
 40
0.0
  9
$CHAMFERC
 40
0.0
  9
$CHAMFERD
 40
0.0
  9
$SKPOLY
 70
     0
  9
$TDCREATE
 40
2452515.591331019
  9
$TDUCREATE
 40
2452515.216331019
  9
$TDUPDATE
 40
2453398.704329178
  9
$TDUUPDATE
 40
2453398.329329179
  9
$TDINDWG
 40
0.0029675231
  9
$TDUSRTIMER
 40
0.0029649884
  9
$USRTIMER
 70
     1
  9
$ANGBASE
 50
0.0
  9
$ANGDIR
 70
     0
  9
$PDMODE
 70
     0
  9
$PDSIZE
 40
0.0
  9
$PLINEWID
 40
0.0
  9
$SPLFRAME
 70
     0
  9
$SPLINETYPE
 70
     6
  9
$SPLINESEGS
 70
     8
  9
$HANDSEED
  5
1B3
  9
$SURFTAB1
 70
     6
  9
$SURFTAB2
 70
     6
  9
$SURFTYPE
 70
     6
  9
$SURFU
 70
     6
  9
$SURFV
 70
     6
  9
$UCSBASE
  2

  9
$UCSNAME
  2

  9
$UCSORG
 10
0.0
 20
0.0
 30
0.0
  9
$UCSXDIR
 10
1.0
 20
0.0
 30
0.0
  9
$UCSYDIR
 10
0.0
 20
1.0
 30
0.0
  9
$UCSORTHOREF
  2

  9
$UCSORTHOVIEW
 70
     0
  9
$UCSORGTOP
 10
0.0
 20
0.0
 30
0.0
  9
$UCSORGBOTTOM
 10
0.0
 20
0.0
 30
0.0
  9
$UCSORGLEFT
 10
0.0
 20
0.0
 30
0.0
  9
$UCSORGRIGHT
 10
0.0
 20
0.0
 30
0.0
  9
$UCSORGFRONT
 10
0.0
 20
0.0
 30
0.0
  9
$UCSORGBACK
 10
0.0
 20
0.0
 30
0.0
  9
$PUCSBASE
  2

  9
$PUCSNAME
  2

  9
$PUCSORG
 10
0.0
 20
0.0
 30
0.0
  9
$PUCSXDIR
 10
1.0
 20
0.0
 30
0.0
  9
$PUCSYDIR
 10
0.0
 20
1.0
 30
0.0
  9
$PUCSORTHOREF
  2

  9
$PUCSORTHOVIEW
 70
     0
  9
$PUCSORGTOP
 10
0.0
 20
0.0
 30
0.0
  9
$PUCSORGBOTTOM
 10
0.0
 20
0.0
 30
0.0
  9
$PUCSORGLEFT
 10
0.0
 20
0.0
 30
0.0
  9
$PUCSORGRIGHT
 10
0.0
 20
0.0
 30
0.0
  9
$PUCSORGFRONT
 10
0.0
 20
0.0
 30
0.0
  9
$PUCSORGBACK
 10
0.0
 20
0.0
 30
0.0
  9
$USERI1
 70
     8
  9
$USERI2
 70
     0
  9
$USERI3
 70
     0
  9
$USERI4
 70
     0
  9
$USERI5
 70
     0
  9
$USERR1
 40
0.0
  9
$USERR2
 40
0.0
  9
$USERR3
 40
0.0
  9
$USERR4
 40
0.0
  9
$USERR5
 40
0.0
  9
$WORLDVIEW
 70
     1
  9
$SHADEDGE
 70
     3
  9
$SHADEDIF
 70
    70
  9
$TILEMODE
 70
     1
  9
$MAXACTVP
 70
    64
  9
$PINSBASE
 10
0.0
 20
0.0
 30
0.0
  9
$PLIMCHECK
 70
     0
  9
$PEXTMIN
 10
1.000000000000000E+20
 20
1.000000000000000E+20
 30
1.000000000000000E+20
  9
$PEXTMAX
 10
-1.000000000000000E+20
 20
-1.000000000000000E+20
 30
-1.000000000000000E+20
  9
$PLIMMIN
 10
0.0
 20
0.0
  9
$PLIMMAX
 10
12.0
 20
9.0
  9
$UNITMODE
 70
     0
  9
$VISRETAIN
 70
     1
  9
$PLINEGEN
 70
     0
  9
$PSLTSCALE
 70
     1
  9
$TREEDEPTH
 70
  3020
  9
$CMLSTYLE
  2
Standard
  9
$CMLJUST
 70
     0
  9
$CMLSCALE
 40
1.0
  9
$PROXYGRAPHICS
 70
     1
  9
$MEASUREMENT
 70
     0
  9
$CELWEIGHT
370
    -1
  9
$ENDCAPS
280
     0
  9
$JOINSTYLE
280
     0
  9
$LWDISPLAY
290
     0
  9
$INSUNITS
 70
     0
  9
$HYPERLINKBASE
  1

  9
$STYLESHEET
  1

  9
$XEDIT
290
     1
  9
$CEPSNTYPE
380
     0
  9
$PSTYLEMODE
290
     1
  9
$FINGERPRINTGUID
  2
{54351D1F-F10C-4C9D-B33A-D60E998E51F6}
  9
$VERSIONGUID
  2
{D479F151-3E4D-4D59-B1B4-8F0C75C7A1F6}
  9
$EXTNAMES
290
     1
  9
$PSVPSCALE
 40
0.0
  9
$OLESTARTUP
290
     0
  0
ENDSEC
  0
SECTION
  2
CLASSES
  0
CLASS
  1
ACDBDICTIONARYWDFLT
  2
AcDbDictionaryWithDefault
  3
ObjectDBX Classes
 90
        0
280
     0
281
     0
  0
CLASS
  1
ACDBPLACEHOLDER
  2
AcDbPlaceHolder
  3
ObjectDBX Classes
 90
        0
280
     0
281
     0
  0
CLASS
  1
LAYOUT
  2
AcDbLayout
  3
ObjectDBX Classes
 90
        0
280
     0
281
     0
  0
CLASS
  1
DICTIONARYVAR
  2
AcDbDictionaryVar
  3
ObjectDBX Classes
 90
        0
280
     0
281
     0
  0
CLASS
  1
TABLESTYLE
  2
AcDbTableStyle
  3
ObjectDBX Classes
 90
     2047
280
     0
281
     0
  0
ENDSEC
  0
SECTION
  2
TABLES
  0
TABLE
  2
VPORT
  5
19
330
0
100
AcDbSymbolTable
 70
     2
  0
VPORT
  5
1AD
330
19
100
AcDbSymbolTableRecord
100
AcDbViewportTableRecord
  2
*Active
 70
     0
 10
0.0
 20
0.0
 11
1.0
 21
1.0
 12
105.0007632725633
 22
237.0384890478423
 13
0.0
 23
0.0
 14
1.0
 24
1.0
 15
0.0
 25
0.0
 16
0.0
 26
0.0
 36
1.0
 17
0.0
 27
0.0
 37
0.0
 40
478.5705296029878
 41
1.087939698492462
 42
50.0
 43
0.0
 44
0.0
 50
0.0
 51
0.0
 71
     0
 72
   100
 73
     1
 74
     1
 75
     0
 76
     0
 77
     0
 78
     0
281
     0
 65
     1
110
0.0
120
0.0
130
0.0
111
1.0
121
0.0
131
0.0
112
0.0
122
1.0
132
0.0
 79
     0
146
0.0
  0
ENDTAB
  0
TABLE
  2
LTYPE
  5
14
330
0
100
AcDbSymbolTable
 70
     2
  0
LTYPE
  5
15
330
14
100
AcDbSymbolTableRecord
100
AcDbLinetypeTableRecord
  2
ByBlock
 70
     0
  3

 72
    65
 73
     0
 40
0.0
  0
LTYPE
  5
16
330
14
100
AcDbSymbolTableRecord
100
AcDbLinetypeTableRecord
  2
ByLayer
 70
     0
  3

 72
    65
 73
     0
 40
0.0
  0
LTYPE
  5
8
330
14
100
AcDbSymbolTableRecord
100
AcDbLinetypeTableRecord
  2
Continuous
 70
     0
  3
Solid line
 72
    65
 73
     0
 40
0.0
  0
LTYPE
  5
30
330
14
100
AcDbSymbolTableRecord
100
AcDbLinetypeTableRecord
  2
CENTER
 70
     0
  3
Center
 72
    65
 73
     4
 40
9.100006759199999
 49
6.5000119209
 74
     0
 49
-0.7999984026000001
 74
     0
 49
0.9999980329999999
 74
     0
 49
-0.7999984026000001
 74
     0
  0
ENDTAB
  0
TABLE
  2
LAYER
  5
10
330
0
100
AcDbSymbolTable
 70
     1
  0
LAYER
  5
4
330
10
100
AcDbSymbolTableRecord
100
AcDbLayerTableRecord
  2
0
 70
     0
 62
     7
  6
Continuous
370
    -3
390
5
  0
ENDTAB
  0
TABLE
  2
STYLE
  5
11
330
0
100
AcDbSymbolTable
 70
     1
  0
STYLE
  5
12
330
11
100
AcDbSymbolTableRecord
100
AcDbTextStyleTableRecord
  2
STANDARD
 70
     0
 40
0.0
 41
1.0
 50
0.0
 71
     0
 42
2.999994039499997
  3
romans.shx
  4
bigfont.shx
  0
ENDTAB
  0
TABLE
  2
VIEW
  5
17
330
0
100
AcDbSymbolTable
 70
     0
  0
ENDTAB
  0
TABLE
  2
UCS
  5
18
330
0
100
AcDbSymbolTable
 70
     0
  0
ENDTAB
  0
TABLE
  2
APPID
  5
1B
330
0
100
AcDbSymbolTable
 70
     1
  0
APPID
  5
1C
330
1B
100
AcDbSymbolTableRecord
100
AcDbRegAppTableRecord
  2
ACAD
 70
     0
  0
ENDTAB
  0
TABLE
  2
DIMSTYLE
  5
1D
330
0
100
AcDbSymbolTable
 70
     1
100
AcDbDimStyleTable
 71
     0
  0
DIMSTYLE
105
23
330
1D
100
AcDbSymbolTableRecord
100
AcDbDimStyleTableRecord
  2
Standard
 70
     0
340
12
  0
ENDTAB
  0
TABLE
  2
BLOCK_RECORD
  5
1
330
0
100
AcDbSymbolTable
 70
     0
  0
BLOCK_RECORD
  5
2
330
1
100
AcDbSymbolTableRecord
100
AcDbBlockTableRecord
  2
*Model_Space
340
A
  0
BLOCK_RECORD
  5
C
330
1
100
AcDbSymbolTableRecord
100
AcDbBlockTableRecord
  2
*Paper_Space
340
F
  0
ENDTAB
  0
ENDSEC
  0
SECTION
  2
BLOCKS
  0
BLOCK
  5
3
330
2
100
AcDbEntity
  8
0
100
AcDbBlockBegin
  2
*Model_Space
 70
     0
 10
0.0
 20
0.0
 30
0.0
  3
*Model_Space
  1

  0
ENDBLK
  5
9
330
2
100
AcDbEntity
  8
0
100
AcDbBlockEnd
  0
BLOCK
  5
D
330
C
100
AcDbEntity
 67
     1
  8
0
100
AcDbBlockBegin
  2
*Paper_Space
 70
     0
 10
0.0
 20
0.0
 30
0.0
  3
*Paper_Space
  1

  0
ENDBLK
  5
E
330
C
100
AcDbEntity
 67
     1
  8
0
100
AcDbBlockEnd
  0
ENDSEC
  0
SECTION
  2
ENTITIES
  0
LINE
  5
24
330
2
100
AcDbEntity
  8
0
100
AcDbLine
 10
210.0
 20
0.0
 30
0.0
 11
210.0
 21
297.0
 31
0.0
  0
LINE
  5
25
330
2
100
AcDbEntity
  8
0
 62
     3
100
AcDbLine
 10
135.8120569407996
 20
203.3424991670998
 30
0.0
 11
135.8120569407996
 21
152.3424991670998
 31
0.0
  0
LINE
  5
26
330
2
100
AcDbEntity
  8
0
 62
     3
100
AcDbLine
 10
134.8120569407996
 20
204.3424991670999
 30
0.0
 11
134.8120569407996
 21
151.3424991670999
 31
0.0
  0
LINE
  5
27
330
2
100
AcDbEntity
  8
0
 62
     3
100
AcDbLine
 10
133.3120569407997
 20
215.3424991670998
 30
0.0
 11
133.3120569407997
 21
140.3424991670999
 31
0.0
  0
LINE
  5
28
330
2
100
AcDbEntity
  8
0
 62
     3
100
AcDbLine
 10
166.0620569407998
 20
142.3881841671
 30
0.0
 11
166.0620569407998
 21
213.2967231670999
 31
0.0
  0
LINE
  5
29
330
2
100
AcDbEntity
  8
0
 62
     3
100
AcDbLine
 10
130.3120569407999
 20
140.8426971670999
 30
0.0
 11
130.3120569407999
 21
214.8422551670999
 31
0.0
  0
LINE
  5
2A
330
2
100
AcDbEntity
  8
0
 62
     3
100
AcDbLine
 10
125.8120569407999
 20
211.6971131670999
 30
0.0
 11
125.8120569407999
 21
143.9878391670999
 31
0.0
  0
LINE
  5
2B
330
2
100
AcDbEntity
  8
0
 62
     3
100
AcDbLine
 10
133.3120569407997
 20
140.3424991670999
 30
0.0
 11
133.3120569407997
 21
215.3424991670998
 31
0.0
  0
ARC
  5
2C
330
2
100
AcDbEntity
  8
0
 62
     3
100
AcDbCircle
 10
60.79470794079998
 20
190.3423771670999
 30
0.0
 40
7.625
100
AcDbArc
 50
8.48445
 51
81.51552100000001
  0
LINE
  5
2D
330
2
100
AcDbEntity
  8
0
100
AcDbLine
 10
0.0
 20
297.0
 30
0.0
 11
0.0
 21
0.0
 31
0.0
  0
ARC
  5
2E
330
2
100
AcDbEntity
  8
0
 62
     3
100
AcDbCircle
 10
60.79470794079998
 20
190.3423771670999
 30
0.0
 40
7.625
100
AcDbArc
 50
98.484443
 51
351.515524
  0
LINE
  5
2F
330
2
100
AcDbEntity
  8
0
  6
CENTER
 62
     3
100
AcDbLine
 10
60.79470794079998
 20
117.1239554318
 30
0.0
 11
60.79470794079998
 21
220.3424991670999
 31
0.0
  0
LINE
  5
31
330
2
100
AcDbEntity
  8
0
 62
     3
100
AcDbLine
 10
42.04469194079999
 20
148.9551391670999
 30
0.0
 11
42.04469194079999
 21
206.7299501670999
 31
0.0
  0
LINE
  5
32
330
2
100
AcDbEntity
  8
0
 62
     3
100
AcDbLine
 10
41.54469194079999
 20
148.9551391670999
 30
0.0
 11
41.54469194079999
 21
206.7299501670999
 31
0.0
  0
LINE
  5
33
330
2
100
AcDbEntity
  8
0
 62
     3
100
AcDbLine
 10
39.29470794079998
 20
143.3428351671
 30
0.0
 11
39.29470794079998
 21
212.3422551670999
 31
0.0
  0
LINE
  5
34
330
2
100
AcDbEntity
  8
0
 62
     3
100
AcDbLine
 10
79.54470794079998
 20
148.9551391670999
 30
0.0
 11
79.54470794079998
 21
206.7299501670999
 31
0.0
  0
LINE
  5
35
330
2
100
AcDbEntity
  8
0
 62
     3
100
AcDbLine
 10
80.04470794079997
 20
148.9551391670999
 30
0.0
 11
80.04470794079997
 21
206.7299501670999
 31
0.0
  0
LINE
  5
36
330
2
100
AcDbEntity
  8
0
 62
     3
100
AcDbLine
 10
82.29470794079999
 20
143.3428351671
 30
0.0
 11
82.29470794079999
 21
212.3422551670999
 31
0.0
  0
LINE
  5
37
330
2
100
AcDbEntity
  8
0
 62
     3
100
AcDbLine
 10
133.3120569407997
 20
140.3424991670999
 30
0.0
 11
164.5880579407998
 21
140.8884131670999
 31
0.0
  0
LINE
  5
38
330
2
100
AcDbEntity
  8
0
 62
     3
100
AcDbLine
 10
134.8120569407996
 20
151.3424991670999
 30
0.0
 11
164.6141809408
 21
150.3017581670999
 31
0.0
  0
LINE
  5
39
330
2
100
AcDbEntity
  8
0
 62
     3
100
AcDbLine
 10
135.8120569407996
 20
152.3424991670998
 30
0.0
 11
164.6141809408
 21
151.3366851670999
 31
0.0
  0
LINE
  5
3A
330
2
100
AcDbEntity
  8
0
100
AcDbLine
 10
0.0
 20
0.0
 30
0.0
 11
210.0
 21
0.0
 31
0.0
  0
LINE
  5
3B
330
2
100
AcDbEntity
  8
0
  6
CENTER
 62
     3
100
AcDbLine
 10
120.8120569407999
 20
177.8425446670999
 30
0.0
 11
171.0620569407999
 21
177.8425446670999
 31
0.0
  0
ARC
  5
3C
330
2
100
AcDbEntity
  8
0
 62
     3
100
AcDbCircle
 10
83.28419194079998
 20
145.2424781670999
 30
0.0
 40
0.65
100
AcDbArc
 50
269.9993089999999
 51
343.398327
  0
ARC
  5
3D
330
2
100
AcDbEntity
  8
0
 62
     3
100
AcDbCircle
 10
79.59467794079998
 20
146.3424851671
 30
0.0
 40
4.5
100
AcDbArc
 50
343.398322
 51
16.60152099999998
  0
ARC
  5
3E
330
2
100
AcDbEntity
  8
0
 62
     3
100
AcDbCircle
 10
83.28419194079998
 20
147.4424901671
 30
0.0
 40
0.65
100
AcDbArc
 50
16.60099299999999
 51
90.0
  0
LINE
  5
3F
330
2
100
AcDbEntity
  8
0
  6
CENTER
 62
     3
100
AcDbLine
 10
80.79467494079995
 20
146.3425001671
 30
0.0
 11
85.2946899408
 21
146.3424841671
 31
0.0
  0
LINE
  5
40
330
2
100
AcDbEntity
  8
0
  6
CENTER
 62
     3
100
AcDbLine
 10
74.49465894079998
 20
143.3424991670999
 30
0.0
 11
84.09463394079995
 21
143.3424991670999
 31
0.0
  0
LINE
  5
41
330
2
100
AcDbEntity
  8
0
  6
CENTER
 62
     3
100
AcDbLine
 10
34.29470794079998
 20
177.8425446670999
 30
0.0
 11
87.29470794079999
 21
177.8425446670999
 31
0.0
  0
LINE
  5
49
330
2
100
AcDbEntity
  8
0
  6
CENTER
 62
     3
100
AcDbLine
 10
51.06603894079999
 20
190.3423771670999
 30
0.0
 11
71.51035994079999
 21
190.3423771670999
 31
0.0
  0
LINE
  5
4A
330
2
100
AcDbEntity
  8
0
 62
     3
100
AcDbLine
 10
55.54470794079998
 20
137.0924991670999
 30
0.0
 11
52.04470794079998
 21
137.0924991670999
 31
0.0
  0
ARC
  5
4B
330
2
100
AcDbEntity
  8
0
 62
     3
100
AcDbCircle
 10
54.04470794079998
 20
132.5924991670999
 30
0.0
 40
2.5
100
AcDbArc
 50
270.0
 51
306.869871
  0
LINE
  5
4C
330
2
100
AcDbEntity
  8
0
 62
     3
100
AcDbLine
 10
52.04470794079998
 20
130.0924991670999
 30
0.0
 11
59.79470794079998
 21
130.0924991670999
 31
0.0
  0
LINE
  5
4D
330
2
100
AcDbEntity
  8
0
  6
CENTER
 62
     3
100
AcDbLine
 10
51.06603894079999
 20
165.3423771670999
 30
0.0
 11
71.51035994079999
 21
165.3423771670999
 31
0.0
  0
ARC
  5
4E
330
2
100
AcDbEntity
  8
0
 62
     3
100
AcDbCircle
 10
60.79470794079998
 20
165.3423771670999
 30
0.0
 40
7.625
100
AcDbArc
 50
98.484443
 51
351.515524
  0
LINE
  5
4F
330
2
100
AcDbEntity
  8
0
 62
     3
100
AcDbLine
 10
69.79470794079998
 20
154.8424991670999
 30
0.0
 11
51.79470794079998
 21
154.8424841671
 31
0.0
  0
LINE
  5
50
330
2
100
AcDbEntity
  8
0
 62
     3
100
AcDbLine
 10
51.79470794079998
 20
148.8424991670999
 30
0.0
 11
69.79470794079998
 21
148.8424991670999
 31
0.0
  0
LINE
  5
51
330
2
100
AcDbEntity
  8
0
 62
     3
100
AcDbLine
 10
73.68221994079998
 20
143.0925901670999
 30
0.0
 11
47.9071949408
 21
143.0925901670999
 31
0.0
  0
LINE
  5
52
330
2
100
AcDbEntity
  8
0
 62
     3
100
AcDbLine
 10
73.68221994079998
 20
142.5925901670999
 30
0.0
 11
47.9071949408
 21
142.5925901670999
 31
0.0
  0
LINE
  5
53
330
2
100
AcDbEntity
  8
0
 62
     3
100
AcDbLine
 10
79.29469194079995
 20
140.3425901670999
 30
0.0
 11
42.29472294079999
 21
140.3425901670999
 31
0.0
  0
LINE
  5
54
330
2
100
AcDbEntity
  8
0
 62
     3
100
AcDbLine
 10
52.54470794079998
 20
125.0924991671
 30
0.0
 11
69.04470794079998
 21
125.0924991671
 31
0.0
  0
LINE
  5
55
330
2
100
AcDbEntity
  8
0
 62
     3
100
AcDbLine
 10
69.54470794079998
 20
139.0924991670999
 30
0.0
 11
52.04470794079998
 21
139.0924991670999
 31
0.0
  0
LINE
  5
56
330
2
100
AcDbEntity
  8
0
 62
     3
100
AcDbLine
 10
52.04470794079998
 20
125.5924991671
 30
0.0
 11
69.54470794079998
 21
125.5924991671
 31
0.0
  0
LINE
  5
57
330
2
100
AcDbEntity
  8
0
 62
     3
100
AcDbLine
 10
69.54469194079999
 20
140.3424991670999
 30
0.0
 11
52.04469194079999
 21
140.3424991670999
 31
0.0
  0
LINE
  5
58
330
2
100
AcDbEntity
  8
0
  6
CENTER
 62
     3
100
AcDbLine
 10
45.79469194079999
 20
153.3427281670999
 30
0.0
 11
45.7947229408
 21
145.3424991670999
 31
0.0
  0
ARC
  5
59
330
2
100
AcDbEntity
  8
0
 62
     3
100
AcDbCircle
 10
43.54469194079999
 20
148.9551391670999
 30
0.0
 40
2.0
100
AcDbArc
 50
179.999781
 51
257.4444979999999
  0
ARC
  5
5A
330
2
100
AcDbEntity
  8
0
 62
     3
100
AcDbCircle
 10
43.54469194079999
 20
148.9551391670999
 30
0.0
 40
1.5
100
AcDbArc
 50
179.9997089999999
 51
257.444957
  0
LINE
  5
5B
330
2
100
AcDbEntity
  8
0
  6
CENTER
 62
     3
100
AcDbLine
 10
42.29470794079997
 20
138.5424961671
 30
0.0
 11
42.29470794079997
 21
148.1424871671
 31
0.0
  0
LINE
  5
5C
330
2
100
AcDbEntity
  8
0
  6
CENTER
 62
     3
100
AcDbLine
 10
37.49465894079997
 20
143.3424991670999
 30
0.0
 11
47.09463394079998
 21
143.3424991670999
 31
0.0
  0
LINE
  5
5D
330
2
100
AcDbEntity
  8
0
 62
     3
100
AcDbLine
 10
40.53680394079997
 20
141.9380801670999
 30
0.0
 11
41.58759994079999
 21
142.9888611670999
 31
0.0
  0
CIRCLE
  5
5E
330
2
100
AcDbEntity
  8
0
 62
     3
100
AcDbCircle
 10
42.29470794079997
 20
143.3424991670999
 30
0.0
 40
2.249998999999998
  0
ARC
  5
5F
330
2
100
AcDbEntity
  8
0
 62
     3
100
AcDbCircle
 10
42.29470794079997
 20
143.3427121670999
 30
0.0
 40
3.0
100
AcDbArc
 50
179.9998539999999
 51
270.0
  0
ARC
  5
60
330
2
100
AcDbEntity
  8
0
 62
     3
100
AcDbCircle
 10
47.9071949408
 20
144.5925901670999
 30
0.0
 40
2.0
100
AcDbArc
 50
192.5532259999998
 51
270.0
  0
ARC
  5
61
330
2
100
AcDbEntity
  8
0
 62
     3
100
AcDbCircle
 10
47.9071949408
 20
144.5925901670999
 30
0.0
 40
1.5
100
AcDbArc
 50
192.5544109999999
 51
270.0
  0
ARC
  5
62
330
2
100
AcDbEntity
  8
0
 62
     3
100
AcDbCircle
 10
42.29470794079997
 20
143.3425901670999
 30
0.0
 40
3.75
100
AcDbArc
 50
12.557256
 51
77.444299
  0
ARC
  5
63
330
2
100
AcDbEntity
  8
0
 62
     3
100
AcDbCircle
 10
42.29470794079997
 20
143.3425901670999
 30
0.0
 40
4.25
100
AcDbArc
 50
12.55636299999999
 51
77.44416099999998
  0
LINE
  5
64
330
2
100
AcDbEntity
  8
0
 62
     3
100
AcDbLine
 10
40.8903339408
 20
141.5845641670999
 30
0.0
 11
41.9411459408
 21
142.6353461671
 31
0.0
  0
ARC
  5
65
330
2
100
AcDbEntity
  8
0
 62
     3
100
AcDbCircle
 10
42.29469194079999
 20
142.2818301671
 30
0.0
 40
0.5
100
AcDbArc
 50
45.0
 51
134.998145
  0
ARC
  5
66
330
2
100
AcDbEntity
  8
0
 62
     3
100
AcDbCircle
 10
42.29470794079997
 20
144.4031531670999
 30
0.0
 40
0.5
100
AcDbArc
 50
225.0
 51
314.999382
  0
ARC
  5
67
330
2
100
AcDbEntity
  8
0
 62
     3
100
AcDbCircle
 10
41.23403894079999
 20
143.3424991670999
 30
0.0
 40
0.5
100
AcDbArc
 50
315.0006179999998
 51
44.99876399999997
  0
LINE
  5
68
330
2
100
AcDbEntity
  8
0
 62
     3
100
AcDbLine
 10
41.26939294079999
 20
144.0142371671
 30
0.0
 11
41.58759994079999
 21
143.6960451671
 31
0.0
  0
LINE
  5
69
330
2
100
AcDbEntity
  8
0
 62
     3
100
AcDbLine
 10
41.62295494079994
 20
144.3677981670999
 30
0.0
 11
41.9411459408
 21
144.0495911671
 31
0.0
  0
LINE
  5
6A
330
2
100
AcDbEntity
  8
0
 62
     3
100
AcDbLine
 10
41.26939294079999
 20
144.0142371671
 30
0.0
 11
41.62295494079994
 21
144.3677981670999
 31
0.0
  0
LINE
  5
6B
330
2
100
AcDbEntity
  8
0
 62
     3
100
AcDbLine
 10
43.00179994079999
 20
142.9889371671
 30
0.0
 11
43.3200069408
 21
142.6707311670999
 31
0.0
  0
LINE
  5
6C
330
2
100
AcDbEntity
  8
0
 62
     3
100
AcDbLine
 10
43.00179994079999
 20
143.6960141670999
 30
0.0
 11
44.0527029408
 21
144.7466741671
 31
0.0
  0
LINE
  5
6D
330
2
100
AcDbEntity
  8
0
 62
     3
100
AcDbLine
 10
42.64825394079999
 20
142.6353911670999
 30
0.0
 11
42.96646094079997
 21
142.3171851670999
 31
0.0
  0
LINE
  5
6E
330
2
100
AcDbEntity
  8
0
 62
     3
100
AcDbLine
 10
42.64825394079999
 20
144.0495301670999
 30
0.0
 11
43.69897394079997
 21
145.1004331671
 31
0.0
  0
ARC
  5
6F
330
2
100
AcDbEntity
  8
0
 62
     3
100
AcDbCircle
 10
43.35536094079998
 20
143.3424841671
 30
0.0
 40
0.5
100
AcDbArc
 50
134.9993819999999
 51
224.998764
  0
LINE
  5
70
330
2
100
AcDbEntity
  8
0
 62
     3
100
AcDbLine
 10
42.96646094079997
 20
142.3171851670999
 30
0.0
 11
43.3200069408
 21
142.6707311670999
 31
0.0
  0
LINE
  5
71
330
2
100
AcDbEntity
  8
0
 62
     3
100
AcDbLine
 10
52.04470794079998
 20
140.3424991670999
 30
0.0
 11
52.04470794079998
 21
125.5924991671
 31
0.0
  0
LINE
  5
72
330
2
100
AcDbEntity
  8
0
 62
     3
100
AcDbLine
 10
52.04470794079998
 20
125.5924991671
 30
0.0
 11
52.54470794079998
 21
125.0924991671
 31
0.0
  0
LINE
  5
73
330
2
100
AcDbEntity
  8
0
  6
CENTER
 62
     3
100
AcDbLine
 10
49.79470794079998
 20
149.3427431670999
 30
0.0
 11
41.79470794079997
 21
149.3424841671
 31
0.0
  0
ARC
  5
74
330
2
100
AcDbEntity
  8
0
 62
     3
100
AcDbCircle
 10
51.79470794079998
 20
153.8424841671
 30
0.0
 40
1.0
100
AcDbArc
 50
89.99956299999999
 51
179.9995629999999
  0
ARC
  5
75
330
2
100
AcDbEntity
  8
0
 62
     3
100
AcDbCircle
 10
51.79470794079998
 20
149.8424991670999
 30
0.0
 40
1.0
100
AcDbArc
 50
179.9995629999999
 51
270.0
  0
LINE
  5
76
330
2
100
AcDbEntity
  8
0
 62
     3
100
AcDbLine
 10
50.79470794079998
 20
153.8424841671
 30
0.0
 11
50.79470794079998
 21
149.8424991670999
 31
0.0
  0
LINE
  5
77
330
2
100
AcDbEntity
  8
0
 62
     3
100
AcDbLine
 10
82.79469094079997
 20
148.2424931671
 30
0.0
 11
82.7946889408
 21
144.4424901670999
 31
0.0
  0
LINE
  5
78
330
2
100
AcDbEntity
  8
0
 62
     3
100
AcDbLine
 10
82.2946889408
 20
144.4424911670999
 30
0.0
 11
82.2946909408
 21
148.2424941670999
 31
0.0
  0
LINE
  5
79
330
2
100
AcDbEntity
  8
0
  6
CENTER
 62
     3
100
AcDbLine
 10
75.79470794079998
 20
153.3427431670999
 30
0.0
 11
75.79469194079995
 21
145.3424991670999
 31
0.0
  0
ARC
  5
7A
330
2
100
AcDbEntity
  8
0
 62
     3
100
AcDbCircle
 10
78.04470794079998
 20
148.9551391670999
 30
0.0
 40
2.0
100
AcDbArc
 50
282.5555019999999
 51
0.0
  0
ARC
  5
7B
330
2
100
AcDbEntity
  8
0
 62
     3
100
AcDbCircle
 10
78.04470794079998
 20
148.9551391670999
 30
0.0
 40
1.5
100
AcDbArc
 50
282.5556119999999
 51
0.0
  0
LINE
  5
7C
330
2
100
AcDbEntity
  8
0
  6
CENTER
 62
     3
100
AcDbLine
 10
79.29470794079998
 20
138.5424961671
 30
0.0
 11
79.29470794079998
 21
148.1424871671
 31
0.0
  0
LINE
  5
80
330
2
100
AcDbEntity
  8
0
 62
     3
100
AcDbLine
 10
64.04470794079998
 20
137.0924991670999
 30
0.0
 11
57.54470794079998
 21
137.0924991670999
 31
0.0
  0
LINE
  5
81
330
2
100
AcDbEntity
  8
0
 62
     3
100
AcDbLine
 10
69.54470794079998
 20
130.0924991670999
 30
0.0
 11
61.79469194079999
 21
130.0924841670999
 31
0.0
  0
LINE
  5
82
330
2
100
AcDbEntity
  8
0
 62
     3
100
AcDbLine
 10
57.54470794079998
 20
130.5924991670999
 30
0.0
 11
57.54470794079998
 21
137.0924991670999
 31
0.0
  0
LINE
  5
83
330
2
100
AcDbEntity
  8
0
 62
     3
100
AcDbLine
 10
55.54470794079998
 20
130.5924991670999
 30
0.0
 11
55.54470794079998
 21
137.0924841671
 31
0.0
  0
ARC
  5
84
330
2
100
AcDbEntity
  8
0
 62
     3
100
AcDbCircle
 10
59.04470794079998
 20
132.5924991670999
 30
0.0
 40
2.5
100
AcDbArc
 50
233.1299969999999
 51
270.0
  0
LINE
  5
85
330
2
100
AcDbEntity
  8
0
 62
     3
100
AcDbLine
 10
55.54470794079998
 20
130.5924991670999
 30
0.0
 11
57.54470794079998
 21
130.5924991670999
 31
0.0
  0
LINE
  5
86
330
2
100
AcDbEntity
  8
0
 62
     3
100
AcDbLine
 10
66.04470794079998
 20
130.5924991670999
 30
0.0
 11
66.04470794079998
 21
137.0924841671
 31
0.0
  0
LINE
  5
87
330
2
100
AcDbEntity
  8
0
 62
     3
100
AcDbLine
 10
69.54470794079998
 20
125.5924991671
 30
0.0
 11
69.54470794079998
 21
140.3424991670999
 31
0.0
  0
LINE
  5
88
330
2
100
AcDbEntity
  8
0
 62
     3
100
AcDbLine
 10
64.04470794079998
 20
130.5924991670999
 30
0.0
 11
64.04470794079998
 21
137.0924841671
 31
0.0
  0
LINE
  5
89
330
2
100
AcDbEntity
  8
0
 62
     3
100
AcDbLine
 10
66.04470794079998
 20
130.5924991670999
 30
0.0
 11
64.04470794079998
 21
130.5924991670999
 31
0.0
  0
ARC
  5
8A
330
2
100
AcDbEntity
  8
0
 62
     3
100
AcDbCircle
 10
62.54470794079998
 20
132.5924991670999
 30
0.0
 40
2.5
100
AcDbArc
 50
270.0
 51
306.869723
  0
ARC
  5
8B
330
2
100
AcDbEntity
  8
0
 62
     3
100
AcDbCircle
 10
67.54470794079998
 20
132.5924991670999
 30
0.0
 40
2.5
100
AcDbArc
 50
233.1299889999999
 51
270.0
  0
LINE
  5
8C
330
2
100
AcDbEntity
  8
0
 62
     3
100
AcDbLine
 10
69.04470794079998
 20
125.0924991671
 30
0.0
 11
69.54470794079998
 21
125.5924991671
 31
0.0
  0
LINE
  5
8D
330
2
100
AcDbEntity
  8
0
 62
     3
100
AcDbLine
 10
69.54470794079998
 20
137.0924991670999
 30
0.0
 11
66.04470794079998
 21
137.0924991670999
 31
0.0
  0
ARC
  5
8E
330
2
100
AcDbEntity
  8
0
 62
     3
100
AcDbCircle
 10
79.29470794079998
 20
143.3425901670999
 30
0.0
 40
4.25
100
AcDbArc
 50
102.5557159999999
 51
167.4435359999999
  0
ARC
  5
8F
330
2
100
AcDbEntity
  8
0
 62
     3
100
AcDbCircle
 10
79.29470794079998
 20
143.3425901670999
 30
0.0
 40
3.75
100
AcDbArc
 50
102.555814
 51
167.442744
  0
ARC
  5
90
330
2
100
AcDbEntity
  8
0
 62
     3
100
AcDbCircle
 10
73.68221994079998
 20
144.5925901670999
 30
0.0
 40
2.0
100
AcDbArc
 50
269.9997809999999
 51
347.446774
  0
ARC
  5
91
330
2
100
AcDbEntity
  8
0
 62
     3
100
AcDbCircle
 10
73.68221994079998
 20
144.5925901670999
 30
0.0
 40
1.5
100
AcDbArc
 50
269.999709
 51
347.4455889999999
  0
LINE
  5
92
330
2
100
AcDbEntity
  8
0
 62
     3
100
AcDbLine
 10
79.6482539408
 20
144.0495301670999
 30
0.0
 11
80.69897394079998
 21
145.1004331671
 31
0.0
  0
LINE
  5
93
330
2
100
AcDbEntity
  8
0
 62
     3
100
AcDbLine
 10
80.00179994079998
 20
143.6960141670999
 30
0.0
 11
81.0527029408
 21
144.7466741671
 31
0.0
  0
CIRCLE
  5
94
330
2
100
AcDbEntity
  8
0
 62
     3
100
AcDbCircle
 10
79.29470794079998
 20
143.3424991670999
 30
0.0
 40
2.249998999999998
  0
ARC
  5
95
330
2
100
AcDbEntity
  8
0
 62
     3
100
AcDbCircle
 10
79.29470794079998
 20
143.3427121670999
 30
0.0
 40
3.0
100
AcDbArc
 50
269.999854
 51
0.0
  0
LINE
  5
96
330
2
100
AcDbEntity
  8
0
 62
     3
100
AcDbLine
 10
77.53680394079998
 20
141.9380801670999
 30
0.0
 11
78.5875999408
 21
142.9888611670999
 31
0.0
  0
LINE
  5
97
330
2
100
AcDbEntity
  8
0
 62
     3
100
AcDbLine
 10
77.89033394079995
 20
141.5845641670999
 30
0.0
 11
78.9411459408
 21
142.6353461671
 31
0.0
  0
LINE
  5
98
330
2
100
AcDbEntity
  8
0
 62
     3
100
AcDbLine
 10
78.2693929408
 20
144.0142371671
 30
0.0
 11
78.5875999408
 21
143.6960451671
 31
0.0
  0
LINE
  5
99
330
2
100
AcDbEntity
  8
0
 62
     3
100
AcDbLine
 10
78.2693929408
 20
144.0142371671
 30
0.0
 11
78.62295494079998
 21
144.3677981670999
 31
0.0
  0
LINE
  5
9A
330
2
100
AcDbEntity
  8
0
 62
     3
100
AcDbLine
 10
80.00179994079998
 20
142.9889371671
 30
0.0
 11
80.3200069408
 21
142.6707311670999
 31
0.0
  0
LINE
  5
9B
330
2
100
AcDbEntity
  8
0
 62
     3
100
AcDbLine
 10
79.6482539408
 20
142.6353911670999
 30
0.0
 11
79.9664609408
 21
142.3171851670999
 31
0.0
  0
ARC
  5
9C
330
2
100
AcDbEntity
  8
0
 62
     3
100
AcDbCircle
 10
80.35536094079999
 20
143.3424841671
 30
0.0
 40
0.5
100
AcDbArc
 50
135.0
 51
224.9981449999999
  0
LINE
  5
9D
330
2
100
AcDbEntity
  8
0
 62
     3
100
AcDbLine
 10
79.9664609408
 20
142.3171851670999
 30
0.0
 11
80.3200069408
 21
142.6707311670999
 31
0.0
  0
ARC
  5
9E
330
2
100
AcDbEntity
  8
0
 62
     3
100
AcDbCircle
 10
78.23403894079994
 20
143.3424991670999
 30
0.0
 40
0.5
100
AcDbArc
 50
315.0
 51
44.99938200000001
  0
LINE
  5
9F
330
2
100
AcDbEntity
  8
0
 62
     3
100
AcDbLine
 10
78.62295494079998
 20
144.3677981670999
 30
0.0
 11
78.9411459408
 21
144.0495911671
 31
0.0
  0
ARC
  5
A0
330
2
100
AcDbEntity
  8
0
 62
     3
100
AcDbCircle
 10
79.29469194079995
 20
142.2818301671
 30
0.0
 40
0.5
100
AcDbArc
 50
45.000618
 51
134.9987639999999
  0
ARC
  5
A1
330
2
100
AcDbEntity
  8
0
 62
     3
100
AcDbCircle
 10
79.29470794079998
 20
144.4031531670999
 30
0.0
 40
0.5
100
AcDbArc
 50
224.9993819999998
 51
314.9987639999999
  0
LINE
  5
A2
330
2
100
AcDbEntity
  8
0
 62
     3
100
AcDbLine
 10
83.28419094079997
 20
144.5924841671
 30
0.0
 11
82.79467394079999
 21
144.5924841671
 31
0.0
  0
LINE
  5
A3
330
2
100
AcDbEntity
  8
0
 62
     3
100
AcDbLine
 10
82.7946899408
 20
146.4458171670999
 30
0.0
 11
82.29468994079997
 21
146.9459851671
 31
0.0
  0
LINE
  5
A4
330
2
100
AcDbEntity
  8
0
 62
     3
100
AcDbLine
 10
82.7946899408
 20
145.7386021670999
 30
0.0
 11
82.29468994079997
 21
146.2387701670999
 31
0.0
  0
LINE
  5
A5
330
2
100
AcDbEntity
  8
0
 62
     3
100
AcDbLine
 10
82.7946889408
 20
144.4424901670999
 30
0.0
 11
82.2946889408
 21
144.4424911670999
 31
0.0
  0
ARC
  5
A6
330
2
100
AcDbEntity
  8
0
 62
     3
100
AcDbCircle
 10
60.79470794079998
 20
165.3423771670999
 30
0.0
 40
7.625
100
AcDbArc
 50
8.48445
 51
81.51552100000001
  0
LINE
  5
A7
330
2
100
AcDbEntity
  8
0
 62
     3
100
AcDbLine
 10
69.01970594079998
 20
166.4673771670999
 30
0.0
 11
69.01970594079998
 21
164.2173771670999
 31
0.0
  0
LINE
  5
A8
330
2
100
AcDbEntity
  8
0
 62
     3
100
AcDbLine
 10
68.33625694079998
 20
164.2173771670999
 30
0.0
 11
69.01970594079998
 21
164.2173771670999
 31
0.0
  0
LINE
  5
A9
330
2
100
AcDbEntity
  8
0
 62
     3
100
AcDbLine
 10
68.33625694079998
 20
166.4673771670999
 30
0.0
 11
69.01970594079998
 21
166.4673771670999
 31
0.0
  0
LINE
  5
AA
330
2
100
AcDbEntity
  8
0
 62
     3
100
AcDbLine
 10
59.66970794079998
 20
173.5673751670999
 30
0.0
 11
61.91970794079998
 21
173.5673751670999
 31
0.0
  0
LINE
  5
AB
330
2
100
AcDbEntity
  8
0
 62
     3
100
AcDbLine
 10
59.66970794079998
 20
172.8839261670999
 30
0.0
 11
59.66970794079998
 21
173.5673751670999
 31
0.0
  0
LINE
  5
AC
330
2
100
AcDbEntity
  8
0
 62
     3
100
AcDbLine
 10
61.91970794079998
 20
173.5673751670999
 30
0.0
 11
61.91970794079998
 21
172.8839261670999
 31
0.0
  0
LINE
  5
AD
330
2
100
AcDbEntity
  8
0
 62
     3
100
AcDbLine
 10
68.33625694079998
 20
189.2173771670999
 30
0.0
 11
69.01970594079998
 21
189.2173771670999
 31
0.0
  0
LINE
  5
AE
330
2
100
AcDbEntity
  8
0
 62
     3
100
AcDbLine
 10
68.33625694079998
 20
191.4673771670999
 30
0.0
 11
69.01970594079998
 21
191.4673771670999
 31
0.0
  0
LINE
  5
AF
330
2
100
AcDbEntity
  8
0
 62
     3
100
AcDbLine
 10
69.01970594079998
 20
191.4673771670999
 30
0.0
 11
69.01970594079998
 21
189.2173771670999
 31
0.0
  0
LINE
  5
B0
330
2
100
AcDbEntity
  8
0
  6
CENTER
 62
     3
100
AcDbLine
 10
71.79469194079995
 20
149.3427431670999
 30
0.0
 11
79.79470794079998
 21
149.3424991670999
 31
0.0
  0
LINE
  5
B1
330
2
100
AcDbEntity
  8
0
 62
     3
100
AcDbLine
 10
70.79470794079998
 20
149.8424841670999
 30
0.0
 11
70.79470794079998
 21
153.8424841671
 31
0.0
  0
ARC
  5
B2
330
2
100
AcDbEntity
  8
0
 62
     3
100
AcDbCircle
 10
69.79470794079998
 20
149.8424991670999
 30
0.0
 40
1.0
100
AcDbArc
 50
269.9995629999999
 51
0.0
  0
ARC
  5
B3
330
2
100
AcDbEntity
  8
0
 62
     3
100
AcDbCircle
 10
69.79470794079998
 20
153.8424841671
 30
0.0
 40
1.0
100
AcDbArc
 50
0.0
 51
90.0
  0
LINE
  5
B4
330
2
100
AcDbEntity
  8
0
 62
     3
100
AcDbLine
 10
83.28419294079997
 20
148.0924841670999
 30
0.0
 11
82.79467494079998
 21
148.0924841670999
 31
0.0
  0
LINE
  5
B5
330
2
100
AcDbEntity
  8
0
 62
     3
100
AcDbLine
 10
82.2946909408
 20
148.2424941670999
 30
0.0
 11
82.79469094079997
 21
148.2424931671
 31
0.0
  0
ARC
  5
B6
330
2
100
AcDbEntity
  8
0
 62
     3
100
AcDbCircle
 10
126.8120569407999
 20
148.4668891671
 30
0.0
 40
1.0
100
AcDbArc
 50
179.9995629999999
 51
262.7986419999999
  0
LINE
  5
B7
330
2
100
AcDbEntity
  8
0
 62
     3
100
AcDbLine
 10
128.4867389407999
 20
142.7956241670999
 30
0.0
 11
126.7015829407999
 21
142.9939881670999
 31
0.0
  0
LINE
  5
B8
330
2
100
AcDbEntity
  8
0
 62
     3
100
AcDbLine
 10
129.8746789407996
 20
147.0721131670999
 30
0.0
 11
126.6866909407999
 21
147.4747011670999
 31
0.0
  0
ARC
  5
B9
330
2
100
AcDbEntity
  8
0
 62
     3
100
AcDbCircle
 10
126.8120569407999
 20
143.9878391670999
 30
0.0
 40
1.0
100
AcDbArc
 50
179.9995629999999
 51
263.6574549999999
  0
LINE
  5
BA
330
2
100
AcDbEntity
  8
0
  6
CENTER
 62
     3
100
AcDbLine
 10
131.7617639407999
 20
143.3423621670999
 30
0.0
 11
127.6117389407999
 21
143.3423771670999
 31
0.0
  0
LINE
  5
BB
330
2
100
AcDbEntity
  8
0
 62
     3
100
AcDbLine
 10
133.3120569407997
 20
140.3425751671
 30
0.0
 11
130.8120569407996
 21
140.3425751671
 31
0.0
  0
LINE
  5
BC
330
2
100
AcDbEntity
  8
0
 62
     3
100
AcDbLine
 10
130.1119839407999
 20
141.0923771670999
 30
0.0
 11
130.1119839407999
 21
145.5923771670999
 31
0.0
  0
ARC
  5
BD
330
2
100
AcDbEntity
  8
0
 62
     3
100
AcDbCircle
 10
134.4617149407999
 20
143.3423621670999
 30
0.0
 40
6.0
100
AcDbArc
 50
163.808153
 51
196.191226
  0
LINE
  5
BE
330
2
100
AcDbEntity
  8
0
 62
     3
100
AcDbLine
 10
130.1119839407999
 20
145.3424991670999
 30
0.0
 11
130.1119839407999
 21
141.3424991670999
 31
0.0
  0
ARC
  5
BF
330
2
100
AcDbEntity
  8
0
 62
     3
100
AcDbCircle
 10
129.4679409407999
 20
141.8923801671
 30
0.0
 40
0.8
100
AcDbArc
 50
196.1922989999998
 51
270.0
  0
LINE
  5
C0
330
2
100
AcDbEntity
  8
0
 62
     3
100
AcDbLine
 10
130.1119839407999
 20
141.3424991670999
 30
0.0
 11
130.3120569407999
 21
141.3424991670999
 31
0.0
  0
ARC
  5
C1
330
2
100
AcDbEntity
  8
0
 62
     3
100
AcDbCircle
 10
130.8120569407996
 20
140.8426971670999
 30
0.0
 40
0.5
100
AcDbArc
 50
179.9991259999999
 51
270.0
  0
LINE
  5
C2
330
2
100
AcDbEntity
  8
0
 62
     3
100
AcDbLine
 10
129.4679409407999
 20
141.0923771670999
 30
0.0
 11
130.1117389407999
 21
141.0923771670999
 31
0.0
  0
ARC
  5
C3
330
2
100
AcDbEntity
  8
0
 62
     3
100
AcDbCircle
 10
129.4679409407999
 20
144.7923891670999
 30
0.0
 40
0.8
100
AcDbArc
 50
90.0
 51
163.8065629999998
  0
LINE
  5
C4
330
2
100
AcDbEntity
  8
0
 62
     3
100
AcDbLine
 10
130.1119839407999
 20
145.3424991670999
 30
0.0
 11
130.3120569407999
 21
145.3424991670999
 31
0.0
  0
ARC
  5
C5
330
2
100
AcDbEntity
  8
0
 62
     3
100
AcDbCircle
 10
129.8120569407996
 20
146.5761411670999
 30
0.0
 40
0.5
100
AcDbArc
 50
0.0
 51
82.80383099999998
  0
LINE
  5
C6
330
2
100
AcDbEntity
  8
0
 62
     3
100
AcDbLine
 10
129.4679409407999
 20
145.5923771670999
 30
0.0
 11
130.1117389407999
 21
145.5923771670999
 31
0.0
  0
LINE
  5
C7
330
2
100
AcDbEntity
  8
0
 62
     3
100
AcDbLine
 10
135.8120569407996
 20
152.3424991670998
 30
0.0
 11
134.8120569407996
 21
151.3424991670999
 31
0.0
  0
TEXT
  5
C8
330
2
100
AcDbEntity
  8
0
 62
     5
100
AcDbText
 10
145.0
 20
10.0
 30
0.0
 40
5.0
  1
Ｅ－２００３Ｂ
 41
0.8539541928024981
 72
     5
 11
179.1581677120999
 21
10.0
 31
0.0
100
AcDbText
  0
TEXT
  5
C9
330
2
100
AcDbEntity
  8
0
 62
     7
100
AcDbText
 10
177.7469186062998
 20
29.3147660432
 30
0.0
 40
2.999994089499998
  1
S=1/2
 41
0.9685277424677485
 72
     5
 11
192.2748061208999
 21
29.3147660432
 31
0.0
100
AcDbText
  0
LINE
  5
CA
330
2
100
AcDbEntity
  8
0
 62
     3
100
AcDbLine
 10
166.5620569407998
 20
146.8424991670999
 30
0.0
 11
166.5620569407998
 21
151.8424991670999
 31
0.0
  0
CIRCLE
  5
CB
330
2
100
AcDbEntity
  8
0
 62
     3
100
AcDbCircle
 10
161.5619349407999
 20
146.3363951670999
 30
0.0
 40
1.749999
  0
CIRCLE
  5
CC
330
2
100
AcDbEntity
  8
0
 62
     3
100
AcDbCircle
 10
161.5619349407999
 20
146.3363951670999
 30
0.0
 40
1.9
  0
CIRCLE
  5
CD
330
2
100
AcDbEntity
  8
0
 62
     3
100
AcDbCircle
 10
155.1206509407998
 20
146.4621281671
 30
0.0
 40
2.25
  0
LINE
  5
CE
330
2
100
AcDbEntity
  8
0
  6
CENTER
 62
     3
100
AcDbLine
 10
161.5619349407999
 20
141.9363861671
 30
0.0
 11
161.5619349407999
 21
150.7362981670999
 31
0.0
  0
LINE
  5
CF
330
2
100
AcDbEntity
  8
0
 62
     3
100
AcDbLine
 10
153.6206509407998
 20
146.4621271670999
 30
0.0
 11
156.6206509407996
 21
146.4621281671
 31
0.0
  0
LINE
  5
D0
330
2
100
AcDbEntity
  8
0
 62
     3
100
AcDbLine
 10
158.1619099407999
 20
137.0924991670999
 30
0.0
 11
152.9618369407999
 21
137.0924991670999
 31
0.0
  0
LINE
  5
D1
330
2
100
AcDbEntity
  8
0
 62
     3
100
AcDbLine
 10
144.0619349407999
 20
125.0924991671
 30
0.0
 11
159.0619349407999
 21
125.0924991671
 31
0.0
  0
LINE
  5
D2
330
2
100
AcDbEntity
  8
0
 62
     3
100
AcDbLine
 10
160.3119349407999
 20
139.0924991670999
 30
0.0
 11
142.8119349407999
 21
139.0924991670999
 31
0.0
  0
LINE
  5
D3
330
2
100
AcDbEntity
  8
0
 62
     3
100
AcDbLine
 10
143.5619349407999
 20
125.5924991671
 30
0.0
 11
159.5619349407999
 21
125.5924991671
 31
0.0
  0
LINE
  5
D4
330
2
100
AcDbEntity
  8
0
  6
CENTER
 62
     3
100
AcDbLine
 10
151.5619349407999
 20
121.0924991671
 30
0.0
 11
151.5619349407999
 21
144.0924991670999
 31
0.0
  0
LINE
  5
D5
330
2
100
AcDbEntity
  8
0
 62
     3
100
AcDbLine
 10
150.1619099407999
 20
137.0924991670999
 30
0.0
 11
144.9618369407999
 21
137.0924841671
 31
0.0
  0
ARC
  5
D6
330
2
100
AcDbEntity
  8
0
 62
     3
100
AcDbCircle
 10
148.6619099407999
 20
132.5924991670999
 30
0.0
 40
2.5
100
AcDbArc
 50
270.0
 51
306.869871
  0
LINE
  5
D7
330
2
100
AcDbEntity
  8
0
 62
     3
100
AcDbLine
 10
148.6619099407999
 20
130.0924991670999
 30
0.0
 11
154.4618369407999
 21
130.0924991670999
 31
0.0
  0
LINE
  5
D8
330
2
100
AcDbEntity
  8
0
 62
     3
100
AcDbLine
 10
144.9618369407999
 20
137.0924991670999
 30
0.0
 11
144.9618369407999
 21
130.5924991670999
 31
0.0
  0
LINE
  5
D9
330
2
100
AcDbEntity
  8
0
 62
     3
100
AcDbLine
 10
143.5619349407999
 20
137.0924991670999
 30
0.0
 11
143.5619349407999
 21
125.5924991671
 31
0.0
  0
ARC
  5
DA
330
2
100
AcDbEntity
  8
0
 62
     3
100
AcDbCircle
 10
146.4618369407999
 20
132.5924991670999
 30
0.0
 40
2.5
100
AcDbArc
 50
233.1299969999999
 51
270.0
  0
LINE
  5
DB
330
2
100
AcDbEntity
  8
0
 62
     3
100
AcDbLine
 10
143.5619349407999
 20
130.0924991670999
 30
0.0
 11
146.2809289407998
 21
130.0924991670999
 31
0.0
  0
LINE
  5
DC
330
2
100
AcDbEntity
  8
0
 62
     3
100
AcDbLine
 10
143.5619349407999
 20
125.5924991671
 30
0.0
 11
144.0619349407999
 21
125.0924991671
 31
0.0
  0
LINE
  5
DD
330
2
100
AcDbEntity
  8
0
 62
     3
100
AcDbLine
 10
143.5619349407999
 20
130.5924991670999
 30
0.0
 11
144.9618369407999
 21
130.5924991670999
 31
0.0
  0
LINE
  5
DE
330
2
100
AcDbEntity
  8
0
 62
     3
100
AcDbLine
 10
143.5619349407999
 20
137.0924841671
 30
0.0
 11
142.8119349407999
 21
137.0924991670999
 31
0.0
  0
LINE
  5
DF
330
2
100
AcDbEntity
  8
0
 62
     3
100
AcDbLine
 10
142.8119349407999
 20
140.5082701670999
 30
0.0
 11
142.8119349407999
 21
137.0923771670999
 31
0.0
  0
LINE
  5
E0
330
2
100
AcDbEntity
  8
0
 62
     3
100
AcDbLine
 10
152.9618369407999
 20
137.0924991670999
 30
0.0
 11
152.9618369407999
 21
130.5924991670999
 31
0.0
  0
LINE
  5
E1
330
2
100
AcDbEntity
  8
0
 62
     3
100
AcDbLine
 10
150.1619099407999
 20
137.0924991670999
 30
0.0
 11
150.1619099407999
 21
130.5924991670999
 31
0.0
  0
LINE
  5
E2
330
2
100
AcDbEntity
  8
0
 62
     3
100
AcDbLine
 10
150.1619099407999
 20
130.5924991670999
 30
0.0
 11
152.9618369407999
 21
130.5924991670999
 31
0.0
  0
ARC
  5
E3
330
2
100
AcDbEntity
  8
0
 62
     3
100
AcDbCircle
 10
154.4618369407999
 20
132.5924991670999
 30
0.0
 40
2.5
100
AcDbArc
 50
233.1299889999999
 51
270.0
  0
LINE
  5
E4
330
2
100
AcDbEntity
  8
0
 62
     3
100
AcDbLine
 10
154.1206359407999
 20
145.7121271671
 30
0.0
 11
156.1206509407998
 21
145.7122501670999
 31
0.0
  0
LINE
  5
E5
330
2
100
AcDbEntity
  8
0
 62
     3
100
AcDbLine
 10
155.1206499407999
 20
147.7121281670999
 30
0.0
 11
155.1206509407998
 21
146.4621281671
 31
0.0
  0
LINE
  5
E6
330
2
100
AcDbEntity
  8
0
 62
     3
100
AcDbLine
 10
154.6206359407999
 20
144.9622501671
 30
0.0
 11
155.6206509407996
 21
144.9623721670999
 31
0.0
  0
LINE
  5
E7
330
2
100
AcDbEntity
  8
0
  6
CENTER
 62
     3
100
AcDbLine
 10
157.1619099407999
 20
146.3363951670999
 30
0.0
 11
165.9618369407999
 21
146.3363951670999
 31
0.0
  0
LINE
  5
E8
330
2
100
AcDbEntity
  8
0
 62
     3
100
AcDbLine
 10
159.5619349407999
 20
137.0924991670999
 30
0.0
 11
159.5619349407999
 21
125.5924991671
 31
0.0
  0
LINE
  5
E9
330
2
100
AcDbEntity
  8
0
 62
     3
100
AcDbLine
 10
158.1619099407999
 20
137.0924841671
 30
0.0
 11
158.1619099407999
 21
130.5924991670999
 31
0.0
  0
ARC
  5
EA
330
2
100
AcDbEntity
  8
0
 62
     3
100
AcDbCircle
 10
156.6619099407999
 20
132.5924991670999
 30
0.0
 40
2.5
100
AcDbArc
 50
270.0
 51
306.869863
  0
LINE
  5
EB
330
2
100
AcDbEntity
  8
0
 62
     3
100
AcDbLine
 10
159.5619349407999
 20
130.0924991670999
 30
0.0
 11
156.8428189407998
 21
130.0924991670999
 31
0.0
  0
LINE
  5
EC
330
2
100
AcDbEntity
  8
0
 62
     3
100
AcDbLine
 10
159.0619349407999
 20
125.0924991671
 30
0.0
 11
159.5619349407999
 21
125.5924991671
 31
0.0
  0
LINE
  5
ED
330
2
100
AcDbEntity
  8
0
 62
     3
100
AcDbLine
 10
159.5619349407999
 20
130.5924991670999
 30
0.0
 11
158.1619099407999
 21
130.5924991670999
 31
0.0
  0
LINE
  5
EE
330
2
100
AcDbEntity
  8
0
 62
     3
100
AcDbLine
 10
160.3119349407999
 20
137.0924991670999
 30
0.0
 11
159.5619349407999
 21
137.0924991670999
 31
0.0
  0
LINE
  5
EF
330
2
100
AcDbEntity
  8
0
 62
     3
100
AcDbLine
 10
160.3119349407999
 20
137.0924991670999
 30
0.0
 11
160.3119349407999
 21
140.8136901670999
 31
0.0
  0
ARC
  5
F0
330
2
100
AcDbEntity
  8
0
 62
     3
100
AcDbCircle
 10
161.5618129408
 20
145.6292881670999
 30
0.0
 40
0.25
100
AcDbArc
 50
44.982724
 51
134.997474
  0
ARC
  5
F1
330
2
100
AcDbEntity
  8
0
 62
     3
100
AcDbCircle
 10
161.5619349407999
 20
147.0434881671
 30
0.0
 40
0.25
100
AcDbArc
 50
224.98271
 51
314.997484
  0
ARC
  5
F2
330
2
100
AcDbEntity
  8
0
 62
     3
100
AcDbCircle
 10
160.8547809407999
 20
146.3363951670999
 30
0.0
 40
0.25
100
AcDbArc
 50
314.995083
 51
45.00243899999996
  0
LINE
  5
F3
330
2
100
AcDbEntity
  8
0
 62
     3
100
AcDbLine
 10
161.0138389407999
 20
145.4348301670999
 30
0.0
 11
161.3850549408
 21
145.8060611670999
 31
0.0
  0
LINE
  5
F4
330
2
100
AcDbEntity
  8
0
 62
     3
100
AcDbLine
 10
160.6603229407999
 20
145.7883761671
 30
0.0
 11
161.0315389407998
 21
146.1596071670999
 31
0.0
  0
LINE
  5
F5
330
2
100
AcDbEntity
  8
0
 62
     3
100
AcDbLine
 10
160.6603229407999
 20
146.8843231670999
 30
0.0
 11
161.0315389407998
 21
146.5131681670999
 31
0.0
  0
LINE
  5
F6
330
2
100
AcDbEntity
  8
0
 62
     3
100
AcDbLine
 10
161.0139609407999
 20
147.2378851670999
 30
0.0
 11
161.3850549408
 21
146.8667151670999
 31
0.0
  0
LINE
  5
F7
330
2
100
AcDbEntity
  8
0
 62
     3
100
AcDbLine
 10
160.6603229407999
 20
145.7883761671
 30
0.0
 11
161.0138389407999
 21
145.4348301670999
 31
0.0
  0
LINE
  5
F8
330
2
100
AcDbEntity
  8
0
 62
     3
100
AcDbLine
 10
160.6603229407999
 20
146.8843231670999
 30
0.0
 11
161.0139609407999
 21
147.2378851670999
 31
0.0
  0
LINE
  5
F9
330
2
100
AcDbEntity
  8
0
 62
     3
100
AcDbLine
 10
162.0922079407999
 20
146.1596071670999
 30
0.0
 11
162.4634239408
 21
145.7883761671
 31
0.0
  0
LINE
  5
FA
330
2
100
AcDbEntity
  8
0
 62
     3
100
AcDbLine
 10
162.0922079407999
 20
146.5131681670999
 30
0.0
 11
162.4634239408
 21
146.8843841670999
 31
0.0
  0
ARC
  5
FB
330
2
100
AcDbEntity
  8
0
 62
     3
100
AcDbCircle
 10
162.2689659407999
 20
146.3363801670999
 30
0.0
 40
0.25
100
AcDbArc
 50
134.9950739999999
 51
225.002424
  0
LINE
  5
FC
330
2
100
AcDbEntity
  8
0
 62
     3
100
AcDbLine
 10
162.1099079407999
 20
147.2379461671
 30
0.0
 11
162.4634239408
 21
146.8843841670999
 31
0.0
  0
LINE
  5
FD
330
2
100
AcDbEntity
  8
0
 62
     3
100
AcDbLine
 10
162.1099079407999
 20
145.4348301670999
 30
0.0
 11
162.4634239408
 21
145.7883761671
 31
0.0
  0
LINE
  5
FE
330
2
100
AcDbEntity
  8
0
 62
     3
100
AcDbLine
 10
161.7386929407999
 20
146.8667151670999
 30
0.0
 11
162.1099079407999
 21
147.2379461671
 31
0.0
  0
LINE
  5
FF
330
2
100
AcDbEntity
  8
0
 62
     3
100
AcDbLine
 10
161.7386929407999
 20
145.8060611670999
 30
0.0
 11
162.1099079407999
 21
145.4348301670999
 31
0.0
  0
ARC
  5
100
330
2
100
AcDbEntity
  8
0
 62
     3
100
AcDbCircle
 10
164.5619349407999
 20
142.3881841671
 30
0.0
 40
1.5
100
AcDbArc
 50
270.997587
 51
0.0
  0
LINE
  5
101
330
2
100
AcDbEntity
  8
0
 62
     3
100
AcDbLine
 10
166.0620569407998
 20
146.8424991670999
 30
0.0
 11
166.5620569407998
 21
146.8424991670999
 31
0.0
  0
LINE
  5
102
330
2
100
AcDbEntity
  8
0
  6
CENTER
 62
     3
100
AcDbLine
 10
164.2865439408
 20
149.3424991670999
 30
0.0
 11
169.4393759407998
 21
149.3424991670999
 31
0.0
  0
ARC
  5
103
330
2
100
AcDbEntity
  8
0
 62
     3
100
AcDbCircle
 10
164.5620569407999
 20
149.8376011670999
 30
0.0
 40
1.5
100
AcDbArc
 50
0.0
 51
88.00394500000004
  0
ARC
  5
104
330
2
100
AcDbEntity
  8
0
 62
     3
100
AcDbCircle
 10
164.5620569407999
 20
148.8026731671
 30
0.0
 40
1.5
100
AcDbArc
 50
0.0
 51
88.00394500000004
  0
LINE
  5
105
330
2
100
AcDbEntity
  8
0
 62
     3
100
AcDbLine
 10
166.0620569407998
 20
151.8424991670999
 30
0.0
 11
166.5620569407998
 21
151.8424991670999
 31
0.0
  0
LINE
  5
108
330
2
100
AcDbEntity
  8
0
 62
     3
100
AcDbLine
 10
133.3120569407997
 20
215.3424991670998
 30
0.0
 11
164.5880579407998
 21
214.7964781670999
 31
0.0
  0
LINE
  5
109
330
2
100
AcDbEntity
  8
0
 62
     3
100
AcDbLine
 10
134.8120569407996
 20
204.3424991670999
 30
0.0
 11
164.6141809408
 21
205.3831481670999
 31
0.0
  0
LINE
  5
10A
330
2
100
AcDbEntity
  8
0
 62
     3
100
AcDbLine
 10
135.8120569407996
 20
203.3424991670998
 30
0.0
 11
164.6141809408
 21
204.3482361670999
 31
0.0
  0
LINE
  5
10F
330
2
100
AcDbEntity
  8
0
100
AcDbLine
 10
210.0
 20
297.0
 30
0.0
 11
0.0
 21
297.0
 31
0.0
  0
LINE
  5
112
330
2
100
AcDbEntity
  8
0
  6
CENTER
 62
     3
100
AcDbLine
 10
74.49465894079998
 20
212.3424991670999
 30
0.0
 11
84.09463394079995
 21
212.3424991670999
 31
0.0
  0
LINE
  5
130
330
2
100
AcDbEntity
  8
0
 62
     3
100
AcDbLine
 10
73.68221994079998
 20
212.5924991670999
 30
0.0
 11
47.9071949408
 21
212.5924991670999
 31
0.0
  0
LINE
  5
131
330
2
100
AcDbEntity
  8
0
 62
     3
100
AcDbLine
 10
73.68221994079998
 20
213.0924991670998
 30
0.0
 11
47.9071949408
 21
213.0924991670998
 31
0.0
  0
LINE
  5
132
330
2
100
AcDbEntity
  8
0
 62
     3
100
AcDbLine
 10
79.29469194079995
 20
215.3424991670998
 30
0.0
 11
42.29472294079999
 21
215.3424991670998
 31
0.0
  0
ARC
  5
133
330
2
100
AcDbEntity
  8
0
 62
     3
100
AcDbCircle
 10
42.29470794079997
 20
212.3423771670999
 30
0.0
 40
3.0
100
AcDbArc
 50
89.99985399999998
 51
180.0
  0
LINE
  5
134
330
2
100
AcDbEntity
  8
0
  6
CENTER
 62
     3
100
AcDbLine
 10
37.49465894079997
 20
212.3423771670999
 30
0.0
 11
47.09463394079998
 21
212.3423771670999
 31
0.0
  0
LINE
  5
135
330
2
100
AcDbEntity
  8
0
 62
     3
100
AcDbLine
 10
40.53680394079997
 20
210.9379581670999
 30
0.0
 11
41.58759994079999
 21
211.9887391670999
 31
0.0
  0
CIRCLE
  5
136
330
2
100
AcDbEntity
  8
0
 62
     3
100
AcDbCircle
 10
42.29470794079997
 20
212.3423771670999
 30
0.0
 40
2.249998999999998
  0
LINE
  5
137
330
2
100
AcDbEntity
  8
0
  6
CENTER
 62
     3
100
AcDbLine
 10
42.29470794079997
 20
207.5423281670999
 30
0.0
 11
42.29470794079997
 21
217.1423041670999
 31
0.0
  0
ARC
  5
138
330
2
100
AcDbEntity
  8
0
 62
     3
100
AcDbCircle
 10
47.9071949408
 20
211.0924991670999
 30
0.0
 40
2.0
100
AcDbArc
 50
89.99978099999998
 51
167.446774
  0
ARC
  5
139
330
2
100
AcDbEntity
  8
0
 62
     3
100
AcDbCircle
 10
47.9071949408
 20
211.0924991670999
 30
0.0
 40
1.5
100
AcDbArc
 50
89.99970899999999
 51
167.4455889999999
  0
LINE
  5
13A
330
2
100
AcDbEntity
  8
0
  6
CENTER
 62
     3
100
AcDbLine
 10
49.79470794079998
 20
206.3422551670999
 30
0.0
 11
41.79470794079997
 21
206.3424991670999
 31
0.0
  0
LINE
  5
13B
330
2
100
AcDbEntity
  8
0
  6
CENTER
 62
     3
100
AcDbLine
 10
45.79469194079999
 20
202.3422551670999
 30
0.0
 11
45.7947229408
 21
210.3423771670999
 31
0.0
  0
ARC
  5
13C
330
2
100
AcDbEntity
  8
0
 62
     3
100
AcDbCircle
 10
42.29470794079997
 20
212.3424991670999
 30
0.0
 40
4.25
100
AcDbArc
 50
282.555716
 51
347.443637
  0
ARC
  5
13D
330
2
100
AcDbEntity
  8
0
 62
     3
100
AcDbCircle
 10
42.29470794079997
 20
212.3424991670999
 30
0.0
 40
3.75
100
AcDbArc
 50
282.555587
 51
347.4427439999999
  0
LINE
  5
13E
330
2
100
AcDbEntity
  8
0
 62
     3
100
AcDbLine
 10
40.8903339408
 20
210.5844421670999
 30
0.0
 11
41.9411459408
 21
211.6352231670999
 31
0.0
  0
ARC
  5
13F
330
2
100
AcDbEntity
  8
0
 62
     3
100
AcDbCircle
 10
43.54469194079999
 20
206.7299501670999
 30
0.0
 40
2.0
100
AcDbArc
 50
102.555502
 51
180.0
  0
ARC
  5
140
330
2
100
AcDbEntity
  8
0
 62
     3
100
AcDbCircle
 10
43.54469194079999
 20
206.7299501670999
 30
0.0
 40
1.5
100
AcDbArc
 50
102.555043
 51
180.0
  0
ARC
  5
141
330
2
100
AcDbEntity
  8
0
 62
     3
100
AcDbCircle
 10
42.29469194079999
 20
211.2817081670999
 30
0.0
 40
0.5
100
AcDbArc
 50
44.99567299999998
 51
135.002473
  0
ARC
  5
142
330
2
100
AcDbEntity
  8
0
 62
     3
100
AcDbCircle
 10
42.29470794079997
 20
213.4029241671
 30
0.0
 40
0.5
100
AcDbArc
 50
224.996909
 51
315.002473
  0
ARC
  5
143
330
2
100
AcDbEntity
  8
0
 62
     3
100
AcDbCircle
 10
41.23403894079999
 20
212.3423771670999
 30
0.0
 40
0.5
100
AcDbArc
 50
314.9938179999998
 51
44.99567300000001
  0
LINE
  5
144
330
2
100
AcDbEntity
  8
0
 62
     3
100
AcDbLine
 10
41.26939294079999
 20
213.0140081671
 30
0.0
 11
41.58759994079999
 21
212.6958921671
 31
0.0
  0
LINE
  5
145
330
2
100
AcDbEntity
  8
0
 62
     3
100
AcDbLine
 10
41.62295494079994
 20
213.3676451671
 30
0.0
 11
41.9411459408
 21
213.0494081670999
 31
0.0
  0
LINE
  5
146
330
2
100
AcDbEntity
  8
0
 62
     3
100
AcDbLine
 10
41.26939294079999
 20
213.0140081671
 30
0.0
 11
41.62295494079994
 21
213.3676451671
 31
0.0
  0
LINE
  5
147
330
2
100
AcDbEntity
  8
0
 62
     3
100
AcDbLine
 10
43.00179994079999
 20
211.9887391670999
 30
0.0
 11
43.3200069408
 21
211.6705021670999
 31
0.0
  0
LINE
  5
148
330
2
100
AcDbEntity
  8
0
 62
     3
100
AcDbLine
 10
43.00179994079999
 20
212.6958921671
 30
0.0
 11
44.0527029408
 21
213.7465521670999
 31
0.0
  0
LINE
  5
149
330
2
100
AcDbEntity
  8
0
 62
     3
100
AcDbLine
 10
42.64825394079999
 20
211.6352231670999
 30
0.0
 11
42.96646094079997
 21
211.3169861670999
 31
0.0
  0
LINE
  5
14A
330
2
100
AcDbEntity
  8
0
 62
     3
100
AcDbLine
 10
42.64825394079999
 20
213.0494081670999
 30
0.0
 11
43.69897394079997
 21
214.1003111670999
 31
0.0
  0
ARC
  5
14B
330
2
100
AcDbEntity
  8
0
 62
     3
100
AcDbCircle
 10
43.35536094079998
 20
212.3422551670999
 30
0.0
 40
0.5
100
AcDbArc
 50
134.993818
 51
224.996909
  0
LINE
  5
14C
330
2
100
AcDbEntity
  8
0
 62
     3
100
AcDbLine
 10
42.96646094079997
 20
211.3169861670999
 30
0.0
 11
43.3200069408
 21
211.6705021670999
 31
0.0
  0
LINE
  5
14D
330
2
100
AcDbEntity
  8
0
 62
     3
100
AcDbLine
 10
59.66970794079998
 20
198.5673751670999
 30
0.0
 11
61.91970794079998
 21
198.5673751670999
 31
0.0
  0
LINE
  5
14E
330
2
100
AcDbEntity
  8
0
 62
     3
100
AcDbLine
 10
59.66970794079998
 20
197.8839261671
 30
0.0
 11
59.66970794079998
 21
198.5673751670999
 31
0.0
  0
LINE
  5
14F
330
2
100
AcDbEntity
  8
0
 62
     3
100
AcDbLine
 10
61.91970794079998
 20
198.5673751670999
 30
0.0
 11
61.91970794079998
 21
197.8839261671
 31
0.0
  0
LINE
  5
150
330
2
100
AcDbEntity
  8
0
  6
CENTER
 62
     3
100
AcDbLine
 10
79.29470794079998
 20
207.5424501670998
 30
0.0
 11
79.29470794079998
 21
217.1424261670999
 31
0.0
  0
ARC
  5
151
330
2
100
AcDbEntity
  8
0
 62
     3
100
AcDbCircle
 10
79.29470794079998
 20
212.3424991670999
 30
0.0
 40
4.25
100
AcDbArc
 50
192.5563629999999
 51
257.444161
  0
ARC
  5
152
330
2
100
AcDbEntity
  8
0
 62
     3
100
AcDbCircle
 10
79.29470794079998
 20
212.3424991670999
 30
0.0
 40
3.75
100
AcDbArc
 50
192.5571419999999
 51
257.4441859999999
  0
LINE
  5
153
330
2
100
AcDbEntity
  8
0
  6
CENTER
 62
     3
100
AcDbLine
 10
71.79469194079995
 20
206.3422551670999
 30
0.0
 11
79.79470794079998
 21
206.3424991670999
 31
0.0
  0
LINE
  5
154
330
2
100
AcDbEntity
  8
0
  6
CENTER
 62
     3
100
AcDbLine
 10
75.79470794079998
 20
202.3422551670999
 30
0.0
 11
75.79469194079995
 21
210.3424991670999
 31
0.0
  0
ARC
  5
155
330
2
100
AcDbEntity
  8
0
 62
     3
100
AcDbCircle
 10
73.68221994079998
 20
211.0924991670999
 30
0.0
 40
1.5
100
AcDbArc
 50
12.554411
 51
90.0
  0
ARC
  5
156
330
2
100
AcDbEntity
  8
0
 62
     3
100
AcDbCircle
 10
73.68221994079998
 20
211.0924991670999
 30
0.0
 40
2.0
100
AcDbArc
 50
12.55322599999999
 51
90.0
  0
LINE
  5
157
330
2
100
AcDbEntity
  8
0
 62
     3
100
AcDbLine
 10
79.6482539408
 20
213.0495301670999
 30
0.0
 11
80.69897394079998
 21
214.1004331670998
 31
0.0
  0
LINE
  5
158
330
2
100
AcDbEntity
  8
0
 62
     3
100
AcDbLine
 10
80.00179994079998
 20
212.6960141670999
 30
0.0
 11
81.0527029408
 21
213.7466741671
 31
0.0
  0
ARC
  5
159
330
2
100
AcDbEntity
  8
0
 62
     3
100
AcDbCircle
 10
79.29470794079998
 20
212.3423771670999
 30
0.0
 40
3.0
100
AcDbArc
 50
0.0
 51
90.0
  0
CIRCLE
  5
15A
330
2
100
AcDbEntity
  8
0
 62
     3
100
AcDbCircle
 10
79.29470794079998
 20
212.3424991670999
 30
0.0
 40
2.249998999999998
  0
ARC
  5
15B
330
2
100
AcDbEntity
  8
0
 62
     3
100
AcDbCircle
 10
78.04470794079998
 20
206.7299501670999
 30
0.0
 40
2.0
100
AcDbArc
 50
0.0
 51
77.44449799999998
  0
LINE
  5
15C
330
2
100
AcDbEntity
  8
0
 62
     3
100
AcDbLine
 10
77.53680394079998
 20
210.9380801671
 30
0.0
 11
78.5875999408
 21
211.9888611671
 31
0.0
  0
LINE
  5
15D
330
2
100
AcDbEntity
  8
0
 62
     3
100
AcDbLine
 10
77.89033394079995
 20
210.5845641670999
 30
0.0
 11
78.9411459408
 21
211.6353461670999
 31
0.0
  0
ARC
  5
15E
330
2
100
AcDbEntity
  8
0
 62
     3
100
AcDbCircle
 10
78.04470794079998
 20
206.7299501670999
 30
0.0
 40
1.5
100
AcDbArc
 50
0.0
 51
77.44438800000001
  0
LINE
  5
15F
330
2
100
AcDbEntity
  8
0
 62
     3
100
AcDbLine
 10
78.2693929408
 20
213.0141301670999
 30
0.0
 11
78.5875999408
 21
212.6960141670999
 31
0.0
  0
LINE
  5
160
330
2
100
AcDbEntity
  8
0
 62
     3
100
AcDbLine
 10
78.2693929408
 20
213.0141301670999
 30
0.0
 11
78.62295494079998
 21
213.3677671671
 31
0.0
  0
LINE
  5
161
330
2
100
AcDbEntity
  8
0
 62
     3
100
AcDbLine
 10
80.00179994079998
 20
211.9888611671
 30
0.0
 11
80.3200069408
 21
211.6706241670998
 31
0.0
  0
LINE
  5
162
330
2
100
AcDbEntity
  8
0
 62
     3
100
AcDbLine
 10
79.6482539408
 20
211.6353461670999
 30
0.0
 11
79.9664609408
 21
211.3171081671
 31
0.0
  0
ARC
  5
163
330
2
100
AcDbEntity
  8
0
 62
     3
100
AcDbCircle
 10
80.35536094079999
 20
212.3423771670999
 30
0.0
 40
0.5
100
AcDbArc
 50
134.994436
 51
224.996291
  0
LINE
  5
164
330
2
100
AcDbEntity
  8
0
 62
     3
100
AcDbLine
 10
79.9664609408
 20
211.3171081671
 30
0.0
 11
80.3200069408
 21
211.6706241670998
 31
0.0
  0
ARC
  5
165
330
2
100
AcDbEntity
  8
0
 62
     3
100
AcDbCircle
 10
78.23403894079994
 20
212.3424991670999
 30
0.0
 40
0.5
100
AcDbArc
 50
314.9932000000001
 51
44.99629099999999
  0
LINE
  5
166
330
2
100
AcDbEntity
  8
0
 62
     3
100
AcDbLine
 10
78.62295494079998
 20
213.3677671671
 30
0.0
 11
78.9411459408
 21
213.0495301670999
 31
0.0
  0
ARC
  5
167
330
2
100
AcDbEntity
  8
0
 62
     3
100
AcDbCircle
 10
79.29469194079995
 20
211.2818301671
 30
0.0
 40
0.5
100
AcDbArc
 50
44.996291
 51
135.0030909999997
  0
ARC
  5
168
330
2
100
AcDbEntity
  8
0
 62
     3
100
AcDbCircle
 10
79.29470794079998
 20
213.4030461671
 30
0.0
 40
0.5
100
AcDbArc
 50
224.996291
 51
315.0018549999998
  0
LINE
  5
16C
330
2
100
AcDbEntity
  8
0
 62
     3
100
AcDbLine
 10
128.4867389407999
 20
212.8893741670998
 30
0.0
 11
126.7015829407999
 21
212.6910101670999
 31
0.0
  0
LINE
  5
16D
330
2
100
AcDbEntity
  8
0
 62
     3
100
AcDbLine
 10
129.8746789407996
 20
208.6128851670999
 30
0.0
 11
126.6866909407999
 21
208.2102971670999
 31
0.0
  0
ARC
  5
16E
330
2
100
AcDbEntity
  8
0
 62
     3
100
AcDbCircle
 10
126.8120569407999
 20
207.2181091670999
 30
0.0
 40
1.0
100
AcDbArc
 50
97.20133
 51
180.0
  0
ARC
  5
16F
330
2
100
AcDbEntity
  8
0
 62
     3
100
AcDbCircle
 10
126.8120569407999
 20
211.6971131670999
 30
0.0
 40
1.0
100
AcDbArc
 50
96.34251800000001
 51
180.0
  0
LINE
  5
170
330
2
100
AcDbEntity
  8
0
 62
     3
100
AcDbLine
 10
133.3120569407997
 20
215.3423771670999
 30
0.0
 11
130.8120569407996
 21
215.3423771670999
 31
0.0
  0
LINE
  5
171
330
2
100
AcDbEntity
  8
0
  6
CENTER
 62
     3
100
AcDbLine
 10
131.7617639407999
 20
212.3424991670999
 30
0.0
 11
127.6117389407999
 21
212.3426211670999
 31
0.0
  0
LINE
  5
172
330
2
100
AcDbEntity
  8
0
 62
     3
100
AcDbLine
 10
130.1119839407999
 20
214.5924991670999
 30
0.0
 11
130.1119839407999
 21
210.0924991670999
 31
0.0
  0
ARC
  5
173
330
2
100
AcDbEntity
  8
0
 62
     3
100
AcDbCircle
 10
134.4617149407999
 20
212.3424991670999
 30
0.0
 40
6.0
100
AcDbArc
 50
163.8083189999998
 51
196.190516
  0
LINE
  5
174
330
2
100
AcDbEntity
  8
0
 62
     3
100
AcDbLine
 10
130.1119839407999
 20
210.3424991670999
 30
0.0
 11
130.1119839407999
 21
214.3424991670999
 31
0.0
  0
ARC
  5
175
330
2
100
AcDbEntity
  8
0
 62
     3
100
AcDbCircle
 10
129.4679409407999
 20
210.8925481670999
 30
0.0
 40
0.8
100
AcDbArc
 50
196.189132
 51
270.0
  0
LINE
  5
176
330
2
100
AcDbEntity
  8
0
 62
     3
100
AcDbLine
 10
130.1119839407999
 20
210.3424991670999
 30
0.0
 11
130.3120569407999
 21
210.3424991670999
 31
0.0
  0
ARC
  5
177
330
2
100
AcDbEntity
  8
0
 62
     3
100
AcDbCircle
 10
129.8120569407996
 20
209.1088561670999
 30
0.0
 40
0.5
100
AcDbArc
 50
277.196098
 51
0.0
  0
LINE
  5
178
330
2
100
AcDbEntity
  8
0
 62
     3
100
AcDbLine
 10
129.4679409407999
 20
210.0926211670999
 30
0.0
 11
130.1117389407999
 21
210.0924991670999
 31
0.0
  0
ARC
  5
179
330
2
100
AcDbEntity
  8
0
 62
     3
100
AcDbCircle
 10
129.4679409407999
 20
213.7925721670999
 30
0.0
 40
0.8
100
AcDbArc
 50
90.0
 51
163.810799
  0
LINE
  5
17A
330
2
100
AcDbEntity
  8
0
 62
     3
100
AcDbLine
 10
130.1119839407999
 20
214.3424991670999
 30
0.0
 11
130.3120569407999
 21
214.3424991670999
 31
0.0
  0
ARC
  5
17B
330
2
100
AcDbEntity
  8
0
 62
     3
100
AcDbCircle
 10
130.8120569407996
 20
214.8422551670999
 30
0.0
 40
0.5
100
AcDbArc
 50
90.0
 51
180.0
  0
LINE
  5
17C
330
2
100
AcDbEntity
  8
0
 62
     3
100
AcDbLine
 10
129.4679409407999
 20
214.5924991670999
 30
0.0
 11
130.1117389407999
 21
214.5924991670999
 31
0.0
  0
LINE
  5
17D
330
2
100
AcDbEntity
  8
0
 62
     3
100
AcDbLine
 10
135.8120569407996
 20
203.3424991670998
 30
0.0
 11
134.8120569407996
 21
204.3424991670999
 31
0.0
  0
LINE
  5
17F
330
2
100
AcDbEntity
  8
0
 62
     3
100
AcDbLine
 10
166.5620569407998
 20
208.8424991670998
 30
0.0
 11
166.5620569407998
 21
203.8424991670999
 31
0.0
  0
ARC
  5
180
330
2
100
AcDbEntity
  8
0
 62
     3
100
AcDbCircle
 10
164.5620569407999
 20
205.8473821670999
 30
0.0
 40
1.5
100
AcDbArc
 50
271.995763
 51
0.0
  0
ARC
  5
181
330
2
100
AcDbEntity
  8
0
 62
     3
100
AcDbCircle
 10
164.5620569407999
 20
206.8822941670999
 30
0.0
 40
1.5
100
AcDbArc
 50
271.995763
 51
0.0
  0
LINE
  5
182
330
2
100
AcDbEntity
  8
0
 62
     3
100
AcDbLine
 10
166.0620569407998
 20
203.8424991670999
 30
0.0
 11
166.5620569407998
 21
203.8424991670999
 31
0.0
  0
LINE
  5
183
330
2
100
AcDbEntity
  8
0
  6
CENTER
 62
     3
100
AcDbLine
 10
164.2865439408
 20
206.3424991670999
 30
0.0
 11
169.4393759407998
 21
206.3424991670999
 31
0.0
  0
LINE
  5
184
330
2
100
AcDbEntity
  8
0
 62
     3
100
AcDbLine
 10
166.0620569407998
 20
208.8424991670998
 30
0.0
 11
166.5620569407998
 21
208.8424991670998
 31
0.0
  0
ARC
  5
185
330
2
100
AcDbEntity
  8
0
 62
     3
100
AcDbCircle
 10
164.5619349407999
 20
213.2967231670999
 30
0.0
 40
1.5
100
AcDbArc
 50
0.0
 51
89.002122
  0
TEXT
  5
19E
330
2
100
AcDbEntity
  8
0
 62
     7
100
AcDbText
 10
146.0
 20
65.00000295525
 30
0.0
 40
2.999994089499998
  1
AGA212Y
 11
146.0
 21
66.5
 31
0.0
100
AcDbText
 73
     2
  0
ENDSEC
  0
SECTION
  2
OBJECTS
  0
DICTIONARY
  5
7
330
0
100
AcDbDictionary
281
     1
  3
ACAD_COLOR
350
1A7
  3
ACAD_GROUP
350
1F
  3
ACAD_LAYOUT
350
B
  3
ACAD_MATERIAL
350
1A6
  3
ACAD_MLINESTYLE
350
20
  3
ACAD_PLOTSETTINGS
350
21
  3
ACAD_PLOTSTYLENAME
350
6
  3
ACAD_TABLESTYLE
350
1A8
  3
ACDBHEADERROUNDTRIPXREC
350
1AE
  3
AcDbVariableDictionary
350
19F
  0
DICTIONARY
  5
1A7
102
{ACAD_REACTORS
330
7
102
}
330
7
100
AcDbDictionary
281
     1
  0
DICTIONARY
  5
1F
102
{ACAD_REACTORS
330
7
102
}
330
7
100
AcDbDictionary
281
     1
  0
DICTIONARY
  5
B
102
{ACAD_REACTORS
330
7
102
}
330
7
100
AcDbDictionary
281
     1
  3
Model
350
A
  3
ﾚｲｱｳﾄ1
350
F
  0
DICTIONARY
  5
1A6
102
{ACAD_REACTORS
330
7
102
}
330
7
100
AcDbDictionary
281
     1
  0
DICTIONARY
  5
20
102
{ACAD_REACTORS
330
7
102
}
330
7
100
AcDbDictionary
281
     1
  3
Standard
350
22
  0
DICTIONARY
  5
21
102
{ACAD_REACTORS
330
7
102
}
330
7
100
AcDbDictionary
281
     1
  0
ACDBDICTIONARYWDFLT
  5
6
102
{ACAD_REACTORS
330
7
102
}
330
7
100
AcDbDictionary
281
     1
  3
Normal
350
5
100
AcDbDictionaryWithDefault
340
5
  0
DICTIONARY
  5
1A8
102
{ACAD_REACTORS
330
7
102
}
330
7
100
AcDbDictionary
281
     1
  3
Standard
350
1A9
  0
DICTIONARY
  5
1AE
102
{ACAD_REACTORS
330
7
102
}
330
7
100
AcDbDictionary
281
     1
  0
DICTIONARY
  5
19F
102
{ACAD_REACTORS
330
7
102
}
330
7
100
AcDbDictionary
281
     1
  3
CTABLESTYLE
350
1AB
  3
DIMASSOC
350
1A0
  3
PROJECTNAME
350
1AC
  0
LAYOUT
  5
A
102
{ACAD_XDICTIONARY
360
1AF
102
}
102
{ACAD_REACTORS
330
B
102
}
330
B
100
AcDbPlotSettings
  1

  2
C:\Program Files\AutoCAD 2000i\plotters\DWF Classic.pc3
  4

  6

 40
0.0
 41
0.0
 42
0.0
 43
0.0
 44
0.0
 45
0.0
 46
0.0
 47
0.0
 48
0.0
 49
0.0
140
0.0
141
0.0
142
1.0
143
1.0
 70
  1712
 72
     0
 73
     0
 74
     0
  7

 75
     0
147
1.0
148
0.0
149
0.0
100
AcDbLayout
  1
Model
 70
     1
 71
     0
 10
0.0
 20
0.0
 11
12.0
 21
9.0
 12
0.0
 22
0.0
 32
0.0
 14
0.0
 24
0.0
 34
0.0
 15
0.0
 25
0.0
 35
0.0
146
0.0
 13
0.0
 23
0.0
 33
0.0
 16
1.0
 26
0.0
 36
0.0
 17
0.0
 27
1.0
 37
0.0
 76
     0
330
2
  0
LAYOUT
  5
F
102
{ACAD_XDICTIONARY
360
1B1
102
}
102
{ACAD_REACTORS
330
B
102
}
330
B
100
AcDbPlotSettings
  1

  2
C:\Program Files\AutoCAD 2000i\plotters\DWF Classic.pc3
  4

  6

 40
0.0
 41
0.0
 42
0.0
 43
0.0
 44
0.0
 45
0.0
 46
0.0
 47
0.0
 48
0.0
 49
0.0
140
0.0
141
0.0
142
1.0
143
1.0
 70
   688
 72
     0
 73
     0
 74
     5
  7

 75
    16
147
1.0
148
0.0
149
0.0
100
AcDbLayout
  1
ﾚｲｱｳﾄ1
 70
     1
 71
     1
 10
0.0
 20
0.0
 11
12.0
 21
9.0
 12
0.0
 22
0.0
 32
0.0
 14
1.000000000000000E+20
 24
1.000000000000000E+20
 34
1.000000000000000E+20
 15
-1.000000000000000E+20
 25
-1.000000000000000E+20
 35
-1.000000000000000E+20
146
0.0
 13
0.0
 23
0.0
 33
0.0
 16
1.0
 26
0.0
 36
0.0
 17
0.0
 27
1.0
 37
0.0
 76
     0
330
C
  0
MLINESTYLE
  5
22
102
{ACAD_REACTORS
330
20
102
}
330
20
100
AcDbMlineStyle
  2
STANDARD
 70
     0
  3

 62
   256
 51
90.0
 52
90.0
 71
     2
 49
0.5
 62
   256
  6
BYLAYER
 49
-0.5
 62
   256
  6
BYLAYER
  0
ACDBPLACEHOLDER
  5
5
102
{ACAD_REACTORS
330
6
102
}
330
6
  0
TABLESTYLE
  5
1A9
102
{ACAD_REACTORS
330
1A8
102
}
330
1A8
100
AcDbTableStyle
  3
Standard
 70
     0
 71
     0
 40
0.06
 41
0.06
280
     0
281
     0
  7
STANDARD
140
0.18
170
     2
 62
     0
 63
     7
283
     0
274
    -2
284
     1
 64
     0
275
    -2
285
     1
 65
     0
276
    -2
286
     1
 66
     0
277
    -2
287
     1
 67
     0
278
    -2
288
     1
 68
     0
279
    -2
289
     1
 69
     0
  7
STANDARD
140
0.25
170
     5
 62
     0
 63
     7
283
     0
274
    -2
284
     1
 64
     0
275
    -2
285
     1
 65
     0
276
    -2
286
     1
 66
     0
277
    -2
287
     1
 67
     0
278
    -2
288
     1
 68
     0
279
    -2
289
     1
 69
     0
  7
STANDARD
140
0.18
170
     5
 62
     0
 63
     7
283
     0
274
    -2
284
     1
 64
     0
275
    -2
285
     1
 65
     0
276
    -2
286
     1
 66
     0
277
    -2
287
     1
 67
     0
278
    -2
288
     1
 68
     0
279
    -2
289
     1
 69
     0
  0
DICTIONARYVAR
  5
1AB
102
{ACAD_REACTORS
330
19F
102
}
330
19F
100
DictionaryVariables
280
     0
  1
STANDARD
  0
DICTIONARYVAR
  5
1A0
102
{ACAD_REACTORS
330
19F
102
}
330
19F
100
DictionaryVariables
280
     0
  1
1
  0
DICTIONARYVAR
  5
1AC
102
{ACAD_REACTORS
330
19F
102
}
330
19F
100
DictionaryVariables
280
     0
  1

  0
DICTIONARY
  5
1AF
330
A
100
AcDbDictionary
280
     1
281
     1
  3
ACAD_XREC_ROUNDTRIP
360
1B0
  0
DICTIONARY
  5
1B1
330
F
100
AcDbDictionary
280
     1
281
     1
  3
ACAD_XREC_ROUNDTRIP
360
1B2
  0
XRECORD
  5
1B0
102
{ACAD_REACTORS
330
1AF
102
}
330
1AF
100
AcDbXrecord
280
     1
102
SHADEPLOT
 70
     0
102
SHADEPLOTRESLEVEL
 70
     2
102
SHADEPLOTCUSTOMDPI
 70
   300
  0
XRECORD
  5
1B2
102
{ACAD_REACTORS
330
1B1
102
}
330
1B1
100
AcDbXrecord
280
     1
102
SHADEPLOT
 70
     0
102
SHADEPLOTRESLEVEL
 70
     2
102
SHADEPLOTCUSTOMDPI
 70
   300
  0
ENDSEC
  0
EOF
