  0
SECTION
  2
HEADER
  9
$ACADVER
  1
AC1015
  9
$ACADMAINTVER
 70
    20
  9
$DWGCODEPAGE
  3
ANSI_932
  9
$INSBASE
 10
0.0
 20
0.0
 30
0.0
  9
$EXTMIN
 10
0.0
 20
0.0
 30
0.0
  9
$EXTMAX
 10
210.0
 20
297.0
 30
0.0
  9
$LIMMIN
 10
-181.5239990233999
 20
-3.174999999999998
  9
$LIMMAX
 10
3.174999999999998
 20
291.2585876465
  9
$ORTHOMODE
 70
     0
  9
$REGENMODE
 70
     1
  9
$FILLMODE
 70
     1
  9
$QTEXTMODE
 70
     0
  9
$MIRRTEXT
 70
     0
  9
$LTSCALE
 40
1.0
  9
$ATTMODE
 70
     1
  9
$TEXTSIZE
 40
2.999994039499997
  9
$TRACEWID
 40
0.05
  9
$TEXTSTYLE
  7
STANDARD
  9
$CLAYER
  8
0
  9
$CELTYPE
  6
ByLayer
  9
$CECOLOR
 62
   256
  9
$CELTSCALE
 40
1.0
  9
$DISPSILH
 70
     0
  9
$DIMSCALE
 40
1.0
  9
$DIMASZ
 40
1.9727878465
  9
$DIMEXO
 40
2.539999961899999
  9
$DIMDLI
 40
0.38
  9
$DIMRND
 40
0.0
  9
$DIMDLE
 40
0.0
  9
$DIMEXE
 40
3.809999942799997
  9
$DIMTP
 40
0.0
  9
$DIMTM
 40
0.0
  9
$DIMTXT
 40
2.999994039499997
  9
$DIMCEN
 40
0.09
  9
$DIMTSZ
 40
0.0
  9
$DIMTOL
 70
     0
  9
$DIMLIM
 70
     0
  9
$DIMTIH
 70
     0
  9
$DIMTOH
 70
     1
  9
$DIMSE1
 70
     0
  9
$DIMSE2
 70
     0
  9
$DIMTAD
 70
     0
  9
$DIMZIN
 70
     0
  9
$DIMBLK
  1

  9
$DIMASO
 70
     1
  9
$DIMSHO
 70
     0
  9
$DIMPOST
  1

  9
$DIMAPOST
  1

  9
$DIMALT
 70
     0
  9
$DIMALTD
 70
     2
  9
$DIMALTF
 40
25.4
  9
$DIMLFAC
 40
1.0
  9
$DIMTOFL
 70
     0
  9
$DIMTVP
 40
0.0
  9
$DIMTIX
 70
     0
  9
$DIMSOXD
 70
     0
  9
$DIMSAH
 70
     0
  9
$DIMBLK1
  1

  9
$DIMBLK2
  1

  9
$DIMSTYLE
  2
Standard
  9
$DIMCLRD
 70
     0
  9
$DIMCLRE
 70
     0
  9
$DIMCLRT
 70
     0
  9
$DIMTFAC
 40
1.0
  9
$DIMGAP
 40
0.09
  9
$DIMJUST
 70
     0
  9
$DIMSD1
 70
     0
  9
$DIMSD2
 70
     0
  9
$DIMTOLJ
 70
     1
  9
$DIMTZIN
 70
     0
  9
$DIMALTZ
 70
     0
  9
$DIMALTTZ
 70
     0
  9
$DIMUPT
 70
     0
  9
$DIMDEC
 70
     4
  9
$DIMTDEC
 70
     4
  9
$DIMALTU
 70
     2
  9
$DIMALTTD
 70
     2
  9
$DIMTXSTY
  7
STANDARD
  9
$DIMAUNIT
 70
     0
  9
$DIMADEC
 70
     0
  9
$DIMALTRND
 40
0.0
  9
$DIMAZIN
 70
     0
  9
$DIMDSEP
 70
    46
  9
$DIMATFIT
 70
     3
  9
$DIMFRAC
 70
     0
  9
$DIMLDRBLK
  1

  9
$DIMLUNIT
 70
     2
  9
$DIMLWD
 70
    -2
  9
$DIMLWE
 70
    -2
  9
$DIMTMOVE
 70
     0
  9
$LUNITS
 70
     2
  9
$LUPREC
 70
     3
  9
$SKETCHINC
 40
0.1
  9
$FILLETRAD
 40
0.0625
  9
$AUNITS
 70
     0
  9
$AUPREC
 70
     0
  9
$MENU
  1
ACAD
  9
$ELEVATION
 40
0.0
  9
$PELEVATION
 40
0.0
  9
$THICKNESS
 40
0.0
  9
$LIMCHECK
 70
     0
  9
$CHAMFERA
 40
0.0
  9
$CHAMFERB
 40
0.0
  9
$CHAMFERC
 40
0.0
  9
$CHAMFERD
 40
0.0
  9
$SKPOLY
 70
     0
  9
$TDCREATE
 40
2452523.400983797
  9
$TDUCREATE
 40
2452523.025983797
  9
$TDUPDATE
 40
2453398.703486563
  9
$TDUUPDATE
 40
2453398.328486563
  9
$TDINDWG
 40
0.0058549653
  9
$TDUSRTIMER
 40
0.0058529745
  9
$USRTIMER
 70
     1
  9
$ANGBASE
 50
0.0
  9
$ANGDIR
 70
     0
  9
$PDMODE
 70
     0
  9
$PDSIZE
 40
0.0
  9
$PLINEWID
 40
0.0
  9
$SPLFRAME
 70
     0
  9
$SPLINETYPE
 70
     6
  9
$SPLINESEGS
 70
     8
  9
$HANDSEED
  5
176
  9
$SURFTAB1
 70
     6
  9
$SURFTAB2
 70
     6
  9
$SURFTYPE
 70
     6
  9
$SURFU
 70
     6
  9
$SURFV
 70
     6
  9
$UCSBASE
  2

  9
$UCSNAME
  2

  9
$UCSORG
 10
0.0
 20
0.0
 30
0.0
  9
$UCSXDIR
 10
1.0
 20
0.0
 30
0.0
  9
$UCSYDIR
 10
0.0
 20
1.0
 30
0.0
  9
$UCSORTHOREF
  2

  9
$UCSORTHOVIEW
 70
     0
  9
$UCSORGTOP
 10
0.0
 20
0.0
 30
0.0
  9
$UCSORGBOTTOM
 10
0.0
 20
0.0
 30
0.0
  9
$UCSORGLEFT
 10
0.0
 20
0.0
 30
0.0
  9
$UCSORGRIGHT
 10
0.0
 20
0.0
 30
0.0
  9
$UCSORGFRONT
 10
0.0
 20
0.0
 30
0.0
  9
$UCSORGBACK
 10
0.0
 20
0.0
 30
0.0
  9
$PUCSBASE
  2

  9
$PUCSNAME
  2

  9
$PUCSORG
 10
0.0
 20
0.0
 30
0.0
  9
$PUCSXDIR
 10
1.0
 20
0.0
 30
0.0
  9
$PUCSYDIR
 10
0.0
 20
1.0
 30
0.0
  9
$PUCSORTHOREF
  2

  9
$PUCSORTHOVIEW
 70
     0
  9
$PUCSORGTOP
 10
0.0
 20
0.0
 30
0.0
  9
$PUCSORGBOTTOM
 10
0.0
 20
0.0
 30
0.0
  9
$PUCSORGLEFT
 10
0.0
 20
0.0
 30
0.0
  9
$PUCSORGRIGHT
 10
0.0
 20
0.0
 30
0.0
  9
$PUCSORGFRONT
 10
0.0
 20
0.0
 30
0.0
  9
$PUCSORGBACK
 10
0.0
 20
0.0
 30
0.0
  9
$USERI1
 70
     8
  9
$USERI2
 70
     0
  9
$USERI3
 70
     0
  9
$USERI4
 70
     0
  9
$USERI5
 70
     0
  9
$USERR1
 40
0.0
  9
$USERR2
 40
0.0
  9
$USERR3
 40
0.0
  9
$USERR4
 40
0.0
  9
$USERR5
 40
0.0
  9
$WORLDVIEW
 70
     1
  9
$SHADEDGE
 70
     3
  9
$SHADEDIF
 70
    70
  9
$TILEMODE
 70
     1
  9
$MAXACTVP
 70
    64
  9
$PINSBASE
 10
0.0
 20
0.0
 30
0.0
  9
$PLIMCHECK
 70
     0
  9
$PEXTMIN
 10
1.000000000000000E+20
 20
1.000000000000000E+20
 30
1.000000000000000E+20
  9
$PEXTMAX
 10
-1.000000000000000E+20
 20
-1.000000000000000E+20
 30
-1.000000000000000E+20
  9
$PLIMMIN
 10
0.0
 20
0.0
  9
$PLIMMAX
 10
12.0
 20
9.0
  9
$UNITMODE
 70
     0
  9
$VISRETAIN
 70
     1
  9
$PLINEGEN
 70
     0
  9
$PSLTSCALE
 70
     1
  9
$TREEDEPTH
 70
  3020
  9
$CMLSTYLE
  2
Standard
  9
$CMLJUST
 70
     0
  9
$CMLSCALE
 40
1.0
  9
$PROXYGRAPHICS
 70
     1
  9
$MEASUREMENT
 70
     0
  9
$CELWEIGHT
370
    -1
  9
$ENDCAPS
280
     0
  9
$JOINSTYLE
280
     0
  9
$LWDISPLAY
290
     0
  9
$INSUNITS
 70
     0
  9
$HYPERLINKBASE
  1

  9
$STYLESHEET
  1

  9
$XEDIT
290
     1
  9
$CEPSNTYPE
380
     0
  9
$PSTYLEMODE
290
     1
  9
$FINGERPRINTGUID
  2
{BF760B6A-EF9F-494F-B06A-EF9E2836EB73}
  9
$VERSIONGUID
  2
{DAF7B3A1-ECDB-446C-9BA2-5E317EBE4129}
  9
$EXTNAMES
290
     1
  9
$PSVPSCALE
 40
0.0
  9
$OLESTARTUP
290
     0
  0
ENDSEC
  0
SECTION
  2
CLASSES
  0
CLASS
  1
ACDBDICTIONARYWDFLT
  2
AcDbDictionaryWithDefault
  3
ObjectDBX Classes
 90
        0
280
     0
281
     0
  0
CLASS
  1
ACDBPLACEHOLDER
  2
AcDbPlaceHolder
  3
ObjectDBX Classes
 90
        0
280
     0
281
     0
  0
CLASS
  1
LAYOUT
  2
AcDbLayout
  3
ObjectDBX Classes
 90
        0
280
     0
281
     0
  0
CLASS
  1
DICTIONARYVAR
  2
AcDbDictionaryVar
  3
ObjectDBX Classes
 90
        0
280
     0
281
     0
  0
CLASS
  1
TABLESTYLE
  2
AcDbTableStyle
  3
ObjectDBX Classes
 90
     2047
280
     0
281
     0
  0
ENDSEC
  0
SECTION
  2
TABLES
  0
TABLE
  2
VPORT
  5
19
330
0
100
AcDbSymbolTable
 70
     2
  0
VPORT
  5
170
330
19
100
AcDbSymbolTableRecord
100
AcDbViewportTableRecord
  2
*Active
 70
     0
 10
0.0
 20
0.0
 11
1.0
 21
1.0
 12
105.0057135484711
 22
155.6823874378165
 13
0.0
 23
0.0
 14
1.0
 24
1.0
 15
0.0
 25
0.0
 16
0.0
 26
0.0
 36
1.0
 17
0.0
 27
0.0
 37
0.0
 40
478.5724503250005
 41
1.087939698492462
 42
50.0
 43
0.0
 44
0.0
 50
0.0
 51
0.0
 71
     0
 72
   100
 73
     1
 74
     1
 75
     0
 76
     0
 77
     0
 78
     0
281
     0
 65
     1
110
0.0
120
0.0
130
0.0
111
1.0
121
0.0
131
0.0
112
0.0
122
1.0
132
0.0
 79
     0
146
0.0
  0
ENDTAB
  0
TABLE
  2
LTYPE
  5
14
330
0
100
AcDbSymbolTable
 70
     2
  0
LTYPE
  5
15
330
14
100
AcDbSymbolTableRecord
100
AcDbLinetypeTableRecord
  2
ByBlock
 70
     0
  3

 72
    65
 73
     0
 40
0.0
  0
LTYPE
  5
16
330
14
100
AcDbSymbolTableRecord
100
AcDbLinetypeTableRecord
  2
ByLayer
 70
     0
  3

 72
    65
 73
     0
 40
0.0
  0
LTYPE
  5
8
330
14
100
AcDbSymbolTableRecord
100
AcDbLinetypeTableRecord
  2
Continuous
 70
     0
  3
Solid line
 72
    65
 73
     0
 40
0.0
  0
LTYPE
  5
32
330
14
100
AcDbSymbolTableRecord
100
AcDbLinetypeTableRecord
  2
CENTER
 70
     0
  3
Center
 72
    65
 73
     4
 40
9.100006759199999
 49
6.5000119209
 74
     0
 49
-0.7999984026000001
 74
     0
 49
0.9999980329999999
 74
     0
 49
-0.7999984026000001
 74
     0
  0
ENDTAB
  0
TABLE
  2
LAYER
  5
10
330
0
100
AcDbSymbolTable
 70
     1
  0
LAYER
  5
4
330
10
100
AcDbSymbolTableRecord
100
AcDbLayerTableRecord
  2
0
 70
     0
 62
     7
  6
Continuous
370
    -3
390
5
  0
ENDTAB
  0
TABLE
  2
STYLE
  5
11
330
0
100
AcDbSymbolTable
 70
     1
  0
STYLE
  5
12
330
11
100
AcDbSymbolTableRecord
100
AcDbTextStyleTableRecord
  2
STANDARD
 70
     0
 40
0.0
 41
1.0
 50
0.0
 71
     0
 42
2.999994039499997
  3
romans.shx
  4
bigfont.shx
  0
ENDTAB
  0
TABLE
  2
VIEW
  5
17
330
0
100
AcDbSymbolTable
 70
     0
  0
ENDTAB
  0
TABLE
  2
UCS
  5
18
330
0
100
AcDbSymbolTable
 70
     0
  0
ENDTAB
  0
TABLE
  2
APPID
  5
1B
330
0
100
AcDbSymbolTable
 70
     1
  0
APPID
  5
1C
330
1B
100
AcDbSymbolTableRecord
100
AcDbRegAppTableRecord
  2
ACAD
 70
     0
  0
ENDTAB
  0
TABLE
  2
DIMSTYLE
  5
1D
330
0
100
AcDbSymbolTable
 70
     1
100
AcDbDimStyleTable
 71
     0
  0
DIMSTYLE
105
23
330
1D
100
AcDbSymbolTableRecord
100
AcDbDimStyleTableRecord
  2
Standard
 70
     0
340
12
  0
ENDTAB
  0
TABLE
  2
BLOCK_RECORD
  5
1
330
0
100
AcDbSymbolTable
 70
     0
  0
BLOCK_RECORD
  5
2
330
1
100
AcDbSymbolTableRecord
100
AcDbBlockTableRecord
  2
*Model_Space
340
A
  0
BLOCK_RECORD
  5
C
330
1
100
AcDbSymbolTableRecord
100
AcDbBlockTableRecord
  2
*Paper_Space
340
F
  0
ENDTAB
  0
ENDSEC
  0
SECTION
  2
BLOCKS
  0
BLOCK
  5
3
330
2
100
AcDbEntity
  8
0
100
AcDbBlockBegin
  2
*Model_Space
 70
     0
 10
0.0
 20
0.0
 30
0.0
  3
*Model_Space
  1

  0
ENDBLK
  5
9
330
2
100
AcDbEntity
  8
0
100
AcDbBlockEnd
  0
BLOCK
  5
D
330
C
100
AcDbEntity
 67
     1
  8
0
100
AcDbBlockBegin
  2
*Paper_Space
 70
     0
 10
0.0
 20
0.0
 30
0.0
  3
*Paper_Space
  1

  0
ENDBLK
  5
E
330
C
100
AcDbEntity
 67
     1
  8
0
100
AcDbBlockEnd
  0
ENDSEC
  0
SECTION
  2
ENTITIES
  0
LINE
  5
24
330
2
100
AcDbEntity
  8
0
100
AcDbLine
 10
210.0
 20
0.0
 30
0.0
 11
210.0
 21
297.0
 31
0.0
  0
LINE
  5
25
330
2
100
AcDbEntity
  8
0
 62
     3
100
AcDbLine
 10
124.5528819457
 20
119.0848389999999
 30
0.0
 11
124.5528819457
 21
194.084839
 31
0.0
  0
LINE
  5
26
330
2
100
AcDbEntity
  8
0
 62
     3
100
AcDbLine
 10
157.3028819456999
 20
121.1305239999999
 30
0.0
 11
157.3028819456999
 21
192.0390629999999
 31
0.0
  0
LINE
  5
27
330
2
100
AcDbEntity
  8
0
 62
     3
100
AcDbLine
 10
124.5528819457
 20
194.084839
 30
0.0
 11
124.5528819457
 21
119.0848389999999
 31
0.0
  0
LINE
  5
28
330
2
100
AcDbEntity
  8
0
 62
     3
100
AcDbLine
 10
126.0528819456999
 20
183.0848389999999
 30
0.0
 11
126.0528819456999
 21
130.0848389999997
 31
0.0
  0
LINE
  5
29
330
2
100
AcDbEntity
  8
0
 62
     3
100
AcDbLine
 10
127.0528819456999
 20
182.0848389999999
 30
0.0
 11
127.0528819456999
 21
131.0848389999997
 31
0.0
  0
LINE
  5
2A
330
2
100
AcDbEntity
  8
0
100
AcDbLine
 10
0.0
 20
297.0
 30
0.0
 11
0.0
 21
0.0
 31
0.0
  0
LINE
  5
2B
330
2
100
AcDbEntity
  8
0
 62
     3
100
AcDbLine
 10
83.53553294569998
 20
122.085175
 30
0.0
 11
83.53553294569998
 21
191.084595
 31
0.0
  0
LINE
  5
2C
330
2
100
AcDbEntity
  8
0
 62
     3
100
AcDbLine
 10
81.2855329457
 20
127.6974789999999
 30
0.0
 11
81.2855329457
 21
185.4722899999999
 31
0.0
  0
LINE
  5
2D
330
2
100
AcDbEntity
  8
0
 62
     3
100
AcDbLine
 10
80.78553294569998
 20
127.6974789999999
 30
0.0
 11
80.78553294569998
 21
185.4722899999999
 31
0.0
  0
LINE
  5
2E
330
2
100
AcDbEntity
  8
0
 62
     3
100
AcDbLine
 10
40.5355329457
 20
122.085175
 30
0.0
 11
40.5355329457
 21
191.084595
 31
0.0
  0
LINE
  5
2F
330
2
100
AcDbEntity
  8
0
 62
     3
100
AcDbLine
 10
42.78551694569997
 20
127.6974789999999
 30
0.0
 11
42.78551694569997
 21
185.4722899999999
 31
0.0
  0
LINE
  5
30
330
2
100
AcDbEntity
  8
0
 62
     3
100
AcDbLine
 10
43.28551694569997
 20
127.6974789999999
 30
0.0
 11
43.28551694569997
 21
185.4722899999999
 31
0.0
  0
LINE
  5
31
330
2
100
AcDbEntity
  8
0
  6
CENTER
 62
     3
100
AcDbLine
 10
62.03553294569999
 20
117.257553
 30
0.0
 11
62.03553294569999
 21
196.240601
 31
0.0
  0
LINE
  5
33
330
2
100
AcDbEntity
  8
0
 62
     3
100
AcDbLine
 10
117.0528819457
 20
190.4394529999999
 30
0.0
 11
117.0528819457
 21
122.730179
 31
0.0
  0
LINE
  5
34
330
2
100
AcDbEntity
  8
0
 62
     3
100
AcDbLine
 10
121.5528819456998
 20
119.585037
 30
0.0
 11
121.5528819456998
 21
193.584595
 31
0.0
  0
LINE
  5
35
330
2
100
AcDbEntity
  8
0
 62
     3
100
AcDbLine
 10
139.9027349457
 20
108.8348389999999
 30
0.0
 11
145.7026619456998
 21
108.8348389999999
 31
0.0
  0
LINE
  5
36
330
2
100
AcDbEntity
  8
0
 62
     3
100
AcDbLine
 10
141.4027349456999
 20
109.3348389999998
 30
0.0
 11
144.2026619456999
 21
109.3348389999998
 31
0.0
  0
LINE
  5
37
330
2
100
AcDbEntity
  8
0
 62
     3
100
AcDbLine
 10
135.3027599456999
 20
103.834839
 30
0.0
 11
150.3027599456999
 21
103.834839
 31
0.0
  0
LINE
  5
38
330
2
100
AcDbEntity
  8
0
 62
     3
100
AcDbLine
 10
134.8027599456999
 20
104.334839
 30
0.0
 11
150.8027599456999
 21
104.334839
 31
0.0
  0
LINE
  5
39
330
2
100
AcDbEntity
  8
0
 62
     3
100
AcDbLine
 10
127.0528819456999
 20
131.0848389999997
 30
0.0
 11
155.8550059456998
 21
130.079025
 31
0.0
  0
LINE
  5
3A
330
2
100
AcDbEntity
  8
0
 62
     3
100
AcDbLine
 10
126.0528819456999
 20
130.0848389999997
 30
0.0
 11
155.8550059456998
 21
129.0440979999999
 31
0.0
  0
LINE
  5
3B
330
2
100
AcDbEntity
  8
0
 62
     3
100
AcDbLine
 10
124.5528819457
 20
119.0848389999999
 30
0.0
 11
155.8288829456999
 21
119.630753
 31
0.0
  0
LINE
  5
3C
330
2
100
AcDbEntity
  8
0
 62
     3
100
AcDbLine
 10
151.5527599456999
 20
117.8348389999999
 30
0.0
 11
134.0527599456999
 21
117.8348389999999
 31
0.0
  0
LINE
  5
3D
330
2
100
AcDbEntity
  8
0
100
AcDbLine
 10
0.0
 20
0.0
 30
0.0
 11
210.0
 21
0.0
 31
0.0
  0
LINE
  5
3E
330
2
100
AcDbEntity
  8
0
 62
     3
100
AcDbLine
 10
83.53551594569998
 20
126.984834
 30
0.0
 11
84.03551594569998
 21
126.984833
 31
0.0
  0
LINE
  5
3F
330
2
100
AcDbEntity
  8
0
 62
     3
100
AcDbLine
 10
84.03551394569999
 20
123.18483
 30
0.0
 11
83.53551394569999
 21
123.1848309999999
 31
0.0
  0
LINE
  5
40
330
2
100
AcDbEntity
  8
0
 62
     3
100
AcDbLine
 10
84.03551494569999
 20
124.4809419999999
 30
0.0
 11
83.53551494569998
 21
124.98111
 31
0.0
  0
LINE
  5
41
330
2
100
AcDbEntity
  8
0
 62
     3
100
AcDbLine
 10
84.03551494569999
 20
125.1881569999997
 30
0.0
 11
83.53551494569998
 21
125.688325
 31
0.0
  0
ARC
  5
42
330
2
100
AcDbEntity
  8
0
 62
     3
100
AcDbCircle
 10
80.53553294569999
 20
122.0850519999999
 30
0.0
 40
3.0
100
AcDbArc
 50
269.999854
 51
0.0
  0
LINE
  5
43
330
2
100
AcDbEntity
  8
0
  6
CENTER
 62
     3
100
AcDbLine
 10
82.0354999457
 20
125.0848399999999
 30
0.0
 11
86.53551494569997
 21
125.084824
 31
0.0
  0
LINE
  5
44
330
2
100
AcDbEntity
  8
0
  6
CENTER
 62
     3
100
AcDbLine
 10
75.7354839457
 20
122.084839
 30
0.0
 11
85.33545894569998
 21
122.084839
 31
0.0
  0
LINE
  5
45
330
2
100
AcDbEntity
  8
0
 62
     3
100
AcDbLine
 10
56.7855329457
 20
115.834839
 30
0.0
 11
53.28553294569999
 21
115.834839
 31
0.0
  0
LINE
  5
46
330
2
100
AcDbEntity
  8
0
 62
     3
100
AcDbLine
 10
53.28553294569999
 20
108.8348389999999
 30
0.0
 11
61.0355329457
 21
108.8348389999999
 31
0.0
  0
LINE
  5
47
330
2
100
AcDbEntity
  8
0
 62
     3
100
AcDbLine
 10
80.53551694569998
 20
119.0849299999999
 30
0.0
 11
43.53554794569999
 21
119.0849299999999
 31
0.0
  0
LINE
  5
48
330
2
100
AcDbEntity
  8
0
 62
     3
100
AcDbLine
 10
74.92304494569999
 20
121.3349299999999
 30
0.0
 11
49.14801994569998
 21
121.3349299999999
 31
0.0
  0
LINE
  5
49
330
2
100
AcDbEntity
  8
0
 62
     3
100
AcDbLine
 10
74.92304494569999
 20
121.83493
 30
0.0
 11
49.14801994569998
 21
121.83493
 31
0.0
  0
LINE
  5
4A
330
2
100
AcDbEntity
  8
0
 62
     3
100
AcDbLine
 10
53.0355329457
 20
127.5848389999999
 30
0.0
 11
71.0355329457
 21
127.5848389999999
 31
0.0
  0
LINE
  5
4B
330
2
100
AcDbEntity
  8
0
 62
     3
100
AcDbLine
 10
71.0355329457
 20
133.5848389999999
 30
0.0
 11
53.0355329457
 21
133.584824
 31
0.0
  0
LINE
  5
4C
330
2
100
AcDbEntity
  8
0
 62
     3
100
AcDbLine
 10
53.7855329457
 20
103.834839
 30
0.0
 11
70.28553294569999
 21
103.834839
 31
0.0
  0
LINE
  5
4D
330
2
100
AcDbEntity
  8
0
 62
     3
100
AcDbLine
 10
70.78553294569998
 20
117.8348389999999
 30
0.0
 11
53.28553294569999
 21
117.8348389999999
 31
0.0
  0
LINE
  5
4E
330
2
100
AcDbEntity
  8
0
 62
     3
100
AcDbLine
 10
53.28553294569999
 20
104.334839
 30
0.0
 11
70.78553294569998
 21
104.334839
 31
0.0
  0
LINE
  5
4F
330
2
100
AcDbEntity
  8
0
 62
     3
100
AcDbLine
 10
70.78551694569998
 20
119.0848389999999
 30
0.0
 11
53.28551694569997
 21
119.0848389999999
 31
0.0
  0
ARC
  5
50
330
2
100
AcDbEntity
  8
0
 62
     3
100
AcDbCircle
 10
43.5355329457
 20
122.0850519999999
 30
0.0
 40
3.0
100
AcDbArc
 50
179.9998539999999
 51
270.0
  0
LINE
  5
51
330
2
100
AcDbEntity
  8
0
  6
CENTER
 62
     3
100
AcDbLine
 10
38.73548394569997
 20
122.084839
 30
0.0
 11
48.3354589457
 21
122.084839
 31
0.0
  0
ARC
  5
52
330
2
100
AcDbEntity
  8
0
 62
     3
100
AcDbCircle
 10
49.14801994569998
 20
123.3349299999999
 30
0.0
 40
2.0
100
AcDbArc
 50
192.5532259999999
 51
270.0
  0
LINE
  5
53
330
2
100
AcDbEntity
  8
0
  6
CENTER
 62
     3
100
AcDbLine
 10
43.5355329457
 20
117.2848359999999
 30
0.0
 11
43.5355329457
 21
126.884827
 31
0.0
  0
LINE
  5
54
330
2
100
AcDbEntity
  8
0
 62
     3
100
AcDbLine
 10
41.7776289457
 20
120.68042
 30
0.0
 11
42.82842494569999
 21
121.731201
 31
0.0
  0
CIRCLE
  5
55
330
2
100
AcDbEntity
  8
0
 62
     3
100
AcDbCircle
 10
43.5355329457
 20
122.084839
 30
0.0
 40
2.249998999999998
  0
LINE
  5
56
330
2
100
AcDbEntity
  8
0
 62
     3
100
AcDbLine
 10
42.13115894569996
 20
120.326904
 30
0.0
 11
43.18197094569998
 21
121.377686
 31
0.0
  0
LINE
  5
57
330
2
100
AcDbEntity
  8
0
 62
     3
100
AcDbLine
 10
53.28553294569999
 20
119.0848389999999
 30
0.0
 11
53.28553294569999
 21
104.334839
 31
0.0
  0
LINE
  5
58
330
2
100
AcDbEntity
  8
0
 62
     3
100
AcDbLine
 10
53.28553294569999
 20
104.334839
 30
0.0
 11
53.7855329457
 21
103.834839
 31
0.0
  0
ARC
  5
59
330
2
100
AcDbEntity
  8
0
 62
     3
100
AcDbCircle
 10
49.14801994569998
 20
123.3349299999999
 30
0.0
 40
1.5
100
AcDbArc
 50
192.5544109999999
 51
270.0
  0
ARC
  5
5A
330
2
100
AcDbEntity
  8
0
 62
     3
100
AcDbCircle
 10
43.5355329457
 20
122.08493
 30
0.0
 40
4.25
100
AcDbArc
 50
12.55636299999999
 51
77.44416099999998
  0
LINE
  5
5B
330
2
100
AcDbEntity
  8
0
  6
CENTER
 62
     3
100
AcDbLine
 10
51.0355329457
 20
128.085083
 30
0.0
 11
43.0355329457
 21
128.084824
 31
0.0
  0
LINE
  5
5C
330
2
100
AcDbEntity
  8
0
 62
     3
100
AcDbLine
 10
44.20728594569999
 20
121.0595249999999
 30
0.0
 11
44.56083194569997
 21
121.413071
 31
0.0
  0
LINE
  5
5D
330
2
100
AcDbEntity
  8
0
 62
     3
100
AcDbLine
 10
44.24262494569997
 20
121.731277
 30
0.0
 11
44.56083194569997
 21
121.413071
 31
0.0
  0
LINE
  5
5E
330
2
100
AcDbEntity
  8
0
 62
     3
100
AcDbLine
 10
44.24262494569997
 20
122.438354
 30
0.0
 11
45.2935279457
 21
123.4890139999998
 31
0.0
  0
LINE
  5
5F
330
2
100
AcDbEntity
  8
0
 62
     3
100
AcDbLine
 10
43.88907894569999
 20
122.7918699999999
 30
0.0
 11
44.93979894569998
 21
123.8427729999999
 31
0.0
  0
ARC
  5
60
330
2
100
AcDbEntity
  8
0
 62
     3
100
AcDbCircle
 10
44.78551694569996
 20
127.6974789999999
 30
0.0
 40
1.5
100
AcDbArc
 50
179.9997089999999
 51
257.444957
  0
ARC
  5
61
330
2
100
AcDbEntity
  8
0
 62
     3
100
AcDbCircle
 10
44.78551694569996
 20
127.6974789999999
 30
0.0
 40
2.0
100
AcDbArc
 50
179.999781
 51
257.4444979999999
  0
ARC
  5
62
330
2
100
AcDbEntity
  8
0
 62
     3
100
AcDbCircle
 10
43.5355329457
 20
123.1454929999999
 30
0.0
 40
0.5
100
AcDbArc
 50
225.0
 51
314.999382
  0
ARC
  5
63
330
2
100
AcDbEntity
  8
0
 62
     3
100
AcDbCircle
 10
44.5961859457
 20
122.084824
 30
0.0
 40
0.5
100
AcDbArc
 50
134.9993819999999
 51
224.998764
  0
ARC
  5
64
330
2
100
AcDbEntity
  8
0
 62
     3
100
AcDbCircle
 10
43.53551694569996
 20
121.02417
 30
0.0
 40
0.5
100
AcDbArc
 50
45.0
 51
134.998145
  0
LINE
  5
65
330
2
100
AcDbEntity
  8
0
 62
     3
100
AcDbLine
 10
43.88907894569999
 20
121.3777309999999
 30
0.0
 11
44.20728594569999
 21
121.0595249999999
 31
0.0
  0
LINE
  5
66
330
2
100
AcDbEntity
  8
0
 62
     3
100
AcDbLine
 10
42.51021794569999
 20
122.756577
 30
0.0
 11
42.8637799457
 21
123.1101379999999
 31
0.0
  0
LINE
  5
67
330
2
100
AcDbEntity
  8
0
 62
     3
100
AcDbLine
 10
42.51021794569999
 20
122.756577
 30
0.0
 11
42.82842494569999
 21
122.438385
 31
0.0
  0
LINE
  5
68
330
2
100
AcDbEntity
  8
0
 62
     3
100
AcDbLine
 10
42.8637799457
 20
123.1101379999999
 30
0.0
 11
43.18197094569998
 21
122.791931
 31
0.0
  0
ARC
  5
69
330
2
100
AcDbEntity
  8
0
 62
     3
100
AcDbCircle
 10
42.47486394569998
 20
122.084839
 30
0.0
 40
0.5
100
AcDbArc
 50
315.0006179999998
 51
44.99876399999997
  0
LINE
  5
6A
330
2
100
AcDbEntity
  8
0
  6
CENTER
 62
     3
100
AcDbLine
 10
47.03551694569997
 20
132.085068
 30
0.0
 11
47.03554794569996
 21
124.0848389999999
 31
0.0
  0
ARC
  5
6B
330
2
100
AcDbEntity
  8
0
 62
     3
100
AcDbCircle
 10
43.5355329457
 20
122.08493
 30
0.0
 40
3.75
100
AcDbArc
 50
12.557256
 51
77.444299
  0
LINE
  5
6C
330
2
100
AcDbEntity
  8
0
 62
     3
100
AcDbLine
 10
52.03553294569999
 20
132.584824
 30
0.0
 11
52.03553294569999
 21
128.5848389999999
 31
0.0
  0
ARC
  5
6D
330
2
100
AcDbEntity
  8
0
 62
     3
100
AcDbCircle
 10
53.0355329457
 20
128.5848389999999
 30
0.0
 40
1.0
100
AcDbArc
 50
179.9995629999999
 51
270.0
  0
ARC
  5
6E
330
2
100
AcDbEntity
  8
0
 62
     3
100
AcDbCircle
 10
53.0355329457
 20
132.584824
 30
0.0
 40
1.0
100
AcDbArc
 50
89.99956299999999
 51
179.9995629999999
  0
LINE
  5
6F
330
2
100
AcDbEntity
  8
0
 62
     3
100
AcDbLine
 10
70.78553294569998
 20
115.834839
 30
0.0
 11
67.2855329457
 21
115.834839
 31
0.0
  0
LINE
  5
70
330
2
100
AcDbEntity
  8
0
 62
     3
100
AcDbLine
 10
70.78553294569998
 20
108.8348389999999
 30
0.0
 11
63.03551694569996
 21
108.8348239999999
 31
0.0
  0
LINE
  5
71
330
2
100
AcDbEntity
  8
0
  6
CENTER
 62
     3
100
AcDbLine
 10
62.03553294569999
 20
98.83483900000001
 30
0.0
 11
62.03553294569999
 21
122.8348389999997
 31
0.0
  0
LINE
  5
72
330
2
100
AcDbEntity
  8
0
 62
     3
100
AcDbLine
 10
65.28553294569999
 20
115.834839
 30
0.0
 11
58.7855329457
 21
115.834839
 31
0.0
  0
LINE
  5
73
330
2
100
AcDbEntity
  8
0
 62
     3
100
AcDbLine
 10
58.7855329457
 20
109.3348389999998
 30
0.0
 11
58.7855329457
 21
115.834839
 31
0.0
  0
LINE
  5
74
330
2
100
AcDbEntity
  8
0
 62
     3
100
AcDbLine
 10
56.7855329457
 20
109.3348389999998
 30
0.0
 11
56.7855329457
 21
115.834824
 31
0.0
  0
LINE
  5
75
330
2
100
AcDbEntity
  8
0
 62
     3
100
AcDbLine
 10
56.7855329457
 20
109.3348389999998
 30
0.0
 11
58.7855329457
 21
109.3348389999998
 31
0.0
  0
ARC
  5
76
330
2
100
AcDbEntity
  8
0
 62
     3
100
AcDbCircle
 10
55.28553294569999
 20
111.3348389999998
 30
0.0
 40
2.5
100
AcDbArc
 50
270.0
 51
306.869871
  0
ARC
  5
77
330
2
100
AcDbEntity
  8
0
 62
     3
100
AcDbCircle
 10
60.28553294569999
 20
111.3348389999998
 30
0.0
 40
2.5
100
AcDbArc
 50
233.1299969999999
 51
270.0
  0
LINE
  5
78
330
2
100
AcDbEntity
  8
0
 62
     3
100
AcDbLine
 10
65.28553294569999
 20
109.3348389999998
 30
0.0
 11
65.28553294569999
 21
115.834824
 31
0.0
  0
LINE
  5
79
330
2
100
AcDbEntity
  8
0
 62
     3
100
AcDbLine
 10
67.2855329457
 20
109.3348389999998
 30
0.0
 11
67.2855329457
 21
115.834824
 31
0.0
  0
LINE
  5
7A
330
2
100
AcDbEntity
  8
0
 62
     3
100
AcDbLine
 10
67.2855329457
 20
109.3348389999998
 30
0.0
 11
65.28553294569999
 21
109.3348389999998
 31
0.0
  0
ARC
  5
7B
330
2
100
AcDbEntity
  8
0
 62
     3
100
AcDbCircle
 10
63.7855329457
 20
111.3348389999998
 30
0.0
 40
2.5
100
AcDbArc
 50
270.0
 51
306.869723
  0
ARC
  5
7C
330
2
100
AcDbEntity
  8
0
 62
     3
100
AcDbCircle
 10
68.7855329457
 20
111.3348389999998
 30
0.0
 40
2.5
100
AcDbArc
 50
233.1299889999999
 51
270.0
  0
LINE
  5
7D
330
2
100
AcDbEntity
  8
0
 62
     3
100
AcDbLine
 10
79.13115894569997
 20
120.326904
 30
0.0
 11
80.18197094569998
 21
121.377686
 31
0.0
  0
LINE
  5
7E
330
2
100
AcDbEntity
  8
0
  6
CENTER
 62
     3
100
AcDbLine
 10
80.53553294569999
 20
117.2848359999999
 30
0.0
 11
80.53553294569999
 21
126.884827
 31
0.0
  0
ARC
  5
7F
330
2
100
AcDbEntity
  8
0
 62
     3
100
AcDbCircle
 10
74.92304494569999
 20
123.3349299999999
 30
0.0
 40
2.0
100
AcDbArc
 50
269.9997809999999
 51
347.446774
  0
CIRCLE
  5
80
330
2
100
AcDbEntity
  8
0
 62
     3
100
AcDbCircle
 10
80.53553294569999
 20
122.084839
 30
0.0
 40
2.249998999999998
  0
LINE
  5
81
330
2
100
AcDbEntity
  8
0
 62
     3
100
AcDbLine
 10
78.7776289457
 20
120.68042
 30
0.0
 11
79.82842494569999
 21
121.731201
 31
0.0
  0
LINE
  5
82
330
2
100
AcDbEntity
  8
0
 62
     3
100
AcDbLine
 10
70.78553294569998
 20
104.334839
 30
0.0
 11
70.78553294569998
 21
119.0848389999999
 31
0.0
  0
LINE
  5
83
330
2
100
AcDbEntity
  8
0
 62
     3
100
AcDbLine
 10
70.28553294569999
 20
103.834839
 30
0.0
 11
70.78553294569998
 21
104.334839
 31
0.0
  0
ARC
  5
84
330
2
100
AcDbEntity
  8
0
 62
     3
100
AcDbCircle
 10
80.53553294569999
 20
122.08493
 30
0.0
 40
3.75
100
AcDbArc
 50
102.555814
 51
167.442744
  0
ARC
  5
85
330
2
100
AcDbEntity
  8
0
 62
     3
100
AcDbCircle
 10
80.53553294569999
 20
122.08493
 30
0.0
 40
4.25
100
AcDbArc
 50
102.5557159999999
 51
167.4435359999999
  0
LINE
  5
86
330
2
100
AcDbEntity
  8
0
  6
CENTER
 62
     3
100
AcDbLine
 10
73.03551694569998
 20
128.085083
 30
0.0
 11
81.0355329457
 21
128.0848389999997
 31
0.0
  0
LINE
  5
87
330
2
100
AcDbEntity
  8
0
 62
     3
100
AcDbLine
 10
72.03553294569998
 20
128.5848239999999
 30
0.0
 11
72.03553294569998
 21
132.584824
 31
0.0
  0
ARC
  5
88
330
2
100
AcDbEntity
  8
0
 62
     3
100
AcDbCircle
 10
71.0355329457
 20
128.5848389999999
 30
0.0
 40
1.0
100
AcDbArc
 50
269.9995629999999
 51
0.0
  0
ARC
  5
89
330
2
100
AcDbEntity
  8
0
 62
     3
100
AcDbCircle
 10
74.92304494569999
 20
123.3349299999999
 30
0.0
 40
1.5
100
AcDbArc
 50
269.999709
 51
347.4455889999999
  0
ARC
  5
8A
330
2
100
AcDbEntity
  8
0
 62
     3
100
AcDbCircle
 10
71.0355329457
 20
132.584824
 30
0.0
 40
1.0
100
AcDbArc
 50
0.0
 51
90.0
  0
ARC
  5
8B
330
2
100
AcDbEntity
  8
0
 62
     3
100
AcDbCircle
 10
80.53553294569999
 20
123.1454929999999
 30
0.0
 40
0.5
100
AcDbArc
 50
224.9993819999999
 51
314.9987639999999
  0
ARC
  5
8C
330
2
100
AcDbEntity
  8
0
 62
     3
100
AcDbCircle
 10
80.53551694569998
 20
121.02417
 30
0.0
 40
0.5
100
AcDbArc
 50
45.000618
 51
134.9987639999999
  0
ARC
  5
8D
330
2
100
AcDbEntity
  8
0
 62
     3
100
AcDbCircle
 10
79.2855329457
 20
127.6974789999999
 30
0.0
 40
1.5
100
AcDbArc
 50
282.5556119999999
 51
0.0
  0
ARC
  5
8E
330
2
100
AcDbEntity
  8
0
 62
     3
100
AcDbCircle
 10
79.2855329457
 20
127.6974789999999
 30
0.0
 40
2.0
100
AcDbArc
 50
282.5555019999999
 51
0.0
  0
LINE
  5
8F
330
2
100
AcDbEntity
  8
0
  6
CENTER
 62
     3
100
AcDbLine
 10
77.03553294569998
 20
132.0850829999999
 30
0.0
 11
77.03551694569998
 21
124.0848389999999
 31
0.0
  0
LINE
  5
90
330
2
100
AcDbEntity
  8
0
 62
     3
100
AcDbLine
 10
79.51021794569999
 20
122.756577
 30
0.0
 11
79.8637799457
 21
123.1101379999999
 31
0.0
  0
LINE
  5
91
330
2
100
AcDbEntity
  8
0
 62
     3
100
AcDbLine
 10
79.8637799457
 20
123.1101379999999
 30
0.0
 11
80.18197094569998
 21
122.791931
 31
0.0
  0
LINE
  5
92
330
2
100
AcDbEntity
  8
0
 62
     3
100
AcDbLine
 10
79.51021794569999
 20
122.756577
 30
0.0
 11
79.82842494569999
 21
122.438385
 31
0.0
  0
ARC
  5
93
330
2
100
AcDbEntity
  8
0
 62
     3
100
AcDbCircle
 10
79.47486394569999
 20
122.084839
 30
0.0
 40
0.5
100
AcDbArc
 50
315.0
 51
44.99938200000001
  0
LINE
  5
94
330
2
100
AcDbEntity
  8
0
 62
     3
100
AcDbLine
 10
83.53551394569999
 20
123.1848309999999
 30
0.0
 11
83.53551594569998
 21
126.984834
 31
0.0
  0
LINE
  5
95
330
2
100
AcDbEntity
  8
0
 62
     3
100
AcDbLine
 10
81.24262494569999
 20
122.438354
 30
0.0
 11
82.29352794569999
 21
123.4890139999998
 31
0.0
  0
LINE
  5
96
330
2
100
AcDbEntity
  8
0
 62
     3
100
AcDbLine
 10
81.2072859457
 20
121.0595249999999
 30
0.0
 11
81.56083194569999
 21
121.413071
 31
0.0
  0
ARC
  5
97
330
2
100
AcDbEntity
  8
0
 62
     3
100
AcDbCircle
 10
81.5961859457
 20
122.084824
 30
0.0
 40
0.5
100
AcDbArc
 50
135.0
 51
224.9981449999999
  0
LINE
  5
98
330
2
100
AcDbEntity
  8
0
 62
     3
100
AcDbLine
 10
80.88907894569999
 20
121.3777309999999
 30
0.0
 11
81.2072859457
 21
121.0595249999999
 31
0.0
  0
LINE
  5
99
330
2
100
AcDbEntity
  8
0
 62
     3
100
AcDbLine
 10
80.88907894569999
 20
122.7918699999999
 30
0.0
 11
81.93979894569997
 21
123.8427729999999
 31
0.0
  0
LINE
  5
9A
330
2
100
AcDbEntity
  8
0
 62
     3
100
AcDbLine
 10
81.24262494569999
 20
121.731277
 30
0.0
 11
81.56083194569999
 21
121.413071
 31
0.0
  0
LINE
  5
9B
330
2
100
AcDbEntity
  8
0
 62
     3
100
AcDbLine
 10
84.03551594569998
 20
126.984833
 30
0.0
 11
84.03551394569999
 21
123.18483
 31
0.0
  0
ARC
  5
9C
330
2
100
AcDbEntity
  8
0
 62
     3
100
AcDbCircle
 10
84.52501694569999
 20
126.18483
 30
0.0
 40
0.65
100
AcDbArc
 50
16.60099299999999
 51
90.0
  0
ARC
  5
9D
330
2
100
AcDbEntity
  8
0
 62
     3
100
AcDbCircle
 10
80.83550294570001
 20
125.0848249999999
 30
0.0
 40
4.5
100
AcDbArc
 50
343.398322
 51
16.60152099999998
  0
ARC
  5
9E
330
2
100
AcDbEntity
  8
0
 62
     3
100
AcDbCircle
 10
84.52501694569999
 20
123.9848179999997
 30
0.0
 40
0.65
100
AcDbArc
 50
269.9993089999999
 51
343.398327
  0
LINE
  5
9F
330
2
100
AcDbEntity
  8
0
 62
     3
100
AcDbLine
 10
84.5250159457
 20
123.3348239999999
 30
0.0
 11
84.03549894569998
 21
123.3348239999999
 31
0.0
  0
LINE
  5
A0
330
2
100
AcDbEntity
  8
0
 62
     3
100
AcDbLine
 10
84.52501794569998
 20
126.8348239999999
 30
0.0
 11
84.03549994569997
 21
126.8348239999999
 31
0.0
  0
LINE
  5
A1
330
2
100
AcDbEntity
  8
0
 62
     3
100
AcDbLine
 10
121.3528089456999
 20
124.0848389999999
 30
0.0
 11
121.3528089456999
 21
120.0848389999999
 31
0.0
  0
ARC
  5
A2
330
2
100
AcDbEntity
  8
0
 62
     3
100
AcDbCircle
 10
125.7025399456999
 20
122.0847019999999
 30
0.0
 40
6.0
100
AcDbArc
 50
163.808153
 51
196.191226
  0
LINE
  5
A3
330
2
100
AcDbEntity
  8
0
 62
     3
100
AcDbLine
 10
121.3528089456999
 20
119.8347169999999
 30
0.0
 11
121.3528089456999
 21
124.334717
 31
0.0
  0
ARC
  5
A4
330
2
100
AcDbEntity
  8
0
 62
     3
100
AcDbCircle
 10
120.7087659456999
 20
120.6347199999999
 30
0.0
 40
0.8
100
AcDbArc
 50
196.1922989999999
 51
270.0
  0
LINE
  5
A5
330
2
100
AcDbEntity
  8
0
 62
     3
100
AcDbLine
 10
124.5528819457
 20
119.084915
 30
0.0
 11
122.0528819456998
 21
119.084915
 31
0.0
  0
ARC
  5
A6
330
2
100
AcDbEntity
  8
0
 62
     3
100
AcDbCircle
 10
122.0528819456998
 20
119.585037
 30
0.0
 40
0.5
100
AcDbArc
 50
179.9991259999999
 51
270.0
  0
LINE
  5
A7
330
2
100
AcDbEntity
  8
0
 62
     3
100
AcDbLine
 10
121.3528089456999
 20
120.0848389999999
 30
0.0
 11
121.5528819456998
 21
120.0848389999999
 31
0.0
  0
LINE
  5
A8
330
2
100
AcDbEntity
  8
0
 62
     3
100
AcDbLine
 10
120.7087659456999
 20
119.8347169999999
 30
0.0
 11
121.3525639456999
 21
119.8347169999999
 31
0.0
  0
ARC
  5
A9
330
2
100
AcDbEntity
  8
0
 62
     3
100
AcDbCircle
 10
120.7087659456999
 20
123.5347289999999
 30
0.0
 40
0.8
100
AcDbArc
 50
90.0
 51
163.8065629999998
  0
LINE
  5
AA
330
2
100
AcDbEntity
  8
0
 62
     3
100
AcDbLine
 10
121.1155039456998
 20
125.8144529999997
 30
0.0
 11
117.9275159456999
 21
126.2170409999999
 31
0.0
  0
LINE
  5
AB
330
2
100
AcDbEntity
  8
0
  6
CENTER
 62
     3
100
AcDbLine
 10
123.0025889456999
 20
122.0847019999999
 30
0.0
 11
118.8525639456998
 21
122.084717
 31
0.0
  0
ARC
  5
AC
330
2
100
AcDbEntity
  8
0
 62
     3
100
AcDbCircle
 10
118.0528819457
 20
127.209229
 30
0.0
 40
1.0
100
AcDbArc
 50
179.9995629999999
 51
262.7986419999999
  0
LINE
  5
AD
330
2
100
AcDbEntity
  8
0
 62
     3
100
AcDbLine
 10
119.7275639456998
 20
121.5379639999998
 30
0.0
 11
117.9424079456999
 21
121.736328
 31
0.0
  0
ARC
  5
AE
330
2
100
AcDbEntity
  8
0
 62
     3
100
AcDbCircle
 10
118.0528819457
 20
122.730179
 30
0.0
 40
1.0
100
AcDbArc
 50
179.9995629999999
 51
263.6574549999999
  0
ARC
  5
AF
330
2
100
AcDbEntity
  8
0
 62
     3
100
AcDbCircle
 10
121.0528819456998
 20
125.318481
 30
0.0
 40
0.5
100
AcDbArc
 50
0.0
 51
82.80383099999998
  0
LINE
  5
B0
330
2
100
AcDbEntity
  8
0
 62
     3
100
AcDbLine
 10
121.3528089456999
 20
124.0848389999999
 30
0.0
 11
121.5528819456998
 21
124.0848389999999
 31
0.0
  0
LINE
  5
B1
330
2
100
AcDbEntity
  8
0
 62
     3
100
AcDbLine
 10
120.7087659456999
 20
124.334717
 30
0.0
 11
121.3525639456999
 21
124.334717
 31
0.0
  0
LINE
  5
B2
330
2
100
AcDbEntity
  8
0
 62
     3
100
AcDbLine
 10
127.0528819456999
 20
131.0848389999997
 30
0.0
 11
126.0528819456999
 21
130.0848389999997
 31
0.0
  0
LINE
  5
B3
330
2
100
AcDbEntity
  8
0
 62
     3
100
AcDbLine
 10
134.8027599456999
 20
115.834824
 30
0.0
 11
134.0527599456999
 21
115.834839
 31
0.0
  0
LINE
  5
B4
330
2
100
AcDbEntity
  8
0
 62
     3
100
AcDbLine
 10
134.0527599456999
 20
119.2506099999999
 30
0.0
 11
134.0527599456999
 21
115.834717
 31
0.0
  0
LINE
  5
B5
330
2
100
AcDbEntity
  8
0
 62
     3
100
AcDbLine
 10
141.4027349456999
 20
115.834839
 30
0.0
 11
141.4027349456999
 21
109.3348389999998
 31
0.0
  0
LINE
  5
B6
330
2
100
AcDbEntity
  8
0
 62
     3
100
AcDbLine
 10
134.8027599456999
 20
115.834839
 30
0.0
 11
134.8027599456999
 21
104.334839
 31
0.0
  0
LINE
  5
B7
330
2
100
AcDbEntity
  8
0
 62
     3
100
AcDbLine
 10
136.2026619456998
 20
115.834839
 30
0.0
 11
136.2026619456998
 21
109.3348389999998
 31
0.0
  0
LINE
  5
B8
330
2
100
AcDbEntity
  8
0
 62
     3
100
AcDbLine
 10
134.8027599456999
 20
108.8348389999999
 30
0.0
 11
137.5217539456999
 21
108.8348389999999
 31
0.0
  0
ARC
  5
B9
330
2
100
AcDbEntity
  8
0
 62
     3
100
AcDbCircle
 10
137.7026619457
 20
111.3348389999998
 30
0.0
 40
2.5
100
AcDbArc
 50
233.1299969999999
 51
270.0
  0
LINE
  5
BA
330
2
100
AcDbEntity
  8
0
 62
     3
100
AcDbLine
 10
134.8027599456999
 20
109.3348389999998
 30
0.0
 11
136.2026619456998
 21
109.3348389999998
 31
0.0
  0
LINE
  5
BB
330
2
100
AcDbEntity
  8
0
 62
     3
100
AcDbLine
 10
134.8027599456999
 20
104.334839
 30
0.0
 11
135.3027599456999
 21
103.834839
 31
0.0
  0
ARC
  5
BC
330
2
100
AcDbEntity
  8
0
 62
     3
100
AcDbCircle
 10
139.9027349457
 20
111.3348389999998
 30
0.0
 40
2.5
100
AcDbArc
 50
270.0
 51
306.869871
  0
LINE
  5
BD
330
2
100
AcDbEntity
  8
0
 62
     3
100
AcDbLine
 10
141.4027349456999
 20
115.834839
 30
0.0
 11
136.2026619456998
 21
115.834824
 31
0.0
  0
TEXT
  5
BE
330
2
100
AcDbEntity
  8
0
 62
     5
100
AcDbText
 10
145.0
 20
10.0
 30
0.0
 40
5.0
  1
Ｅ－２００１Ｂ
 41
0.8539541928024981
 72
     5
 11
179.1581677120999
 21
10.0
 31
0.0
100
AcDbText
  0
TEXT
  5
BF
330
2
100
AcDbEntity
  8
0
 62
     7
100
AcDbText
 10
177.7469184821999
 20
29.3147660432
 30
0.0
 40
2.999994089499998
  1
S=1/2
 41
0.9685277424677407
 72
     5
 11
192.2748059967999
 21
29.3147660432
 31
0.0
100
AcDbText
  0
ARC
  5
C0
330
2
100
AcDbEntity
  8
0
 62
     3
100
AcDbCircle
 10
155.8028819457
 20
127.5450129999998
 30
0.0
 40
1.5
100
AcDbArc
 50
0.0
 51
88.00394500000004
  0
ARC
  5
C1
330
2
100
AcDbEntity
  8
0
 62
     3
100
AcDbCircle
 10
155.8028819457
 20
128.5799409999997
 30
0.0
 40
1.5
100
AcDbArc
 50
0.0
 51
88.00394500000004
  0
ARC
  5
C2
330
2
100
AcDbEntity
  8
0
 62
     3
100
AcDbCircle
 10
155.8027599456998
 20
121.1305239999999
 30
0.0
 40
1.5
100
AcDbArc
 50
270.997587
 51
0.0
  0
LINE
  5
C3
330
2
100
AcDbEntity
  8
0
  6
CENTER
 62
     3
100
AcDbLine
 10
155.5273689456998
 20
128.0848389999997
 30
0.0
 11
160.6802009456997
 21
128.0848389999997
 31
0.0
  0
LINE
  5
C4
330
2
100
AcDbEntity
  8
0
  6
CENTER
 62
     3
100
AcDbLine
 10
148.4027349456999
 20
125.0787349999999
 30
0.0
 11
157.2026619456998
 21
125.0787349999999
 31
0.0
  0
LINE
  5
C5
330
2
100
AcDbEntity
  8
0
  6
CENTER
 62
     3
100
AcDbLine
 10
152.8027599456999
 20
120.678726
 30
0.0
 11
152.8027599456999
 21
129.4786379999999
 31
0.0
  0
LINE
  5
C6
330
2
100
AcDbEntity
  8
0
  6
CENTER
 62
     3
100
AcDbLine
 10
142.8027599456999
 20
98.83483900000001
 30
0.0
 11
142.8027599456999
 21
122.8348389999997
 31
0.0
  0
LINE
  5
C7
330
2
100
AcDbEntity
  8
0
 62
     3
100
AcDbLine
 10
149.4027349457
 20
115.834839
 30
0.0
 11
144.2026619456999
 21
115.834839
 31
0.0
  0
LINE
  5
C8
330
2
100
AcDbEntity
  8
0
 62
     3
100
AcDbLine
 10
150.8027599456999
 20
108.8348389999999
 30
0.0
 11
148.0836439456998
 21
108.8348389999999
 31
0.0
  0
ARC
  5
C9
330
2
100
AcDbEntity
  8
0
 62
     3
100
AcDbCircle
 10
147.9027349456998
 20
111.3348389999998
 30
0.0
 40
2.5
100
AcDbArc
 50
270.0
 51
306.869863
  0
LINE
  5
CA
330
2
100
AcDbEntity
  8
0
 62
     3
100
AcDbLine
 10
144.2026619456999
 20
115.834839
 30
0.0
 11
144.2026619456999
 21
109.3348389999998
 31
0.0
  0
ARC
  5
CB
330
2
100
AcDbEntity
  8
0
 62
     3
100
AcDbCircle
 10
145.7026619456998
 20
111.3348389999998
 30
0.0
 40
2.5
100
AcDbArc
 50
233.1299889999999
 51
270.0
  0
LINE
  5
CC
330
2
100
AcDbEntity
  8
0
 62
     3
100
AcDbLine
 10
150.8027599456999
 20
115.834839
 30
0.0
 11
150.8027599456999
 21
104.334839
 31
0.0
  0
LINE
  5
CD
330
2
100
AcDbEntity
  8
0
 62
     3
100
AcDbLine
 10
149.4027349457
 20
115.834824
 30
0.0
 11
149.4027349457
 21
109.3348389999998
 31
0.0
  0
LINE
  5
CE
330
2
100
AcDbEntity
  8
0
 62
     3
100
AcDbLine
 10
150.8027599456999
 20
109.3348389999998
 30
0.0
 11
149.4027349457
 21
109.3348389999998
 31
0.0
  0
LINE
  5
CF
330
2
100
AcDbEntity
  8
0
 62
     3
100
AcDbLine
 10
150.3027599456999
 20
103.834839
 30
0.0
 11
150.8027599456999
 21
104.334839
 31
0.0
  0
LINE
  5
D0
330
2
100
AcDbEntity
  8
0
 62
     3
100
AcDbLine
 10
151.5527599456999
 20
115.834839
 30
0.0
 11
151.5527599456999
 21
119.55603
 31
0.0
  0
LINE
  5
D1
330
2
100
AcDbEntity
  8
0
 62
     3
100
AcDbLine
 10
151.5527599456999
 20
115.834839
 30
0.0
 11
150.8027599456999
 21
115.834839
 31
0.0
  0
LINE
  5
D2
330
2
100
AcDbEntity
  8
0
 62
     3
100
AcDbLine
 10
144.8614759456999
 20
125.2044669999999
 30
0.0
 11
147.8614759456999
 21
125.204468
 31
0.0
  0
CIRCLE
  5
D3
330
2
100
AcDbEntity
  8
0
 62
     3
100
AcDbCircle
 10
146.3614759456999
 20
125.204468
 30
0.0
 40
2.25
  0
LINE
  5
D4
330
2
100
AcDbEntity
  8
0
 62
     3
100
AcDbLine
 10
145.3614609456998
 20
124.454467
 30
0.0
 11
147.3614759456999
 21
124.45459
 31
0.0
  0
LINE
  5
D5
330
2
100
AcDbEntity
  8
0
 62
     3
100
AcDbLine
 10
146.3614749456999
 20
126.4544679999999
 30
0.0
 11
146.3614759456999
 21
125.204468
 31
0.0
  0
LINE
  5
D6
330
2
100
AcDbEntity
  8
0
 62
     3
100
AcDbLine
 10
145.8614609456998
 20
123.70459
 30
0.0
 11
146.8614759456999
 21
123.7047119999999
 31
0.0
  0
LINE
  5
D7
330
2
100
AcDbEntity
  8
0
 62
     3
100
AcDbLine
 10
152.2547859456999
 20
125.9802249999999
 30
0.0
 11
152.6258799456998
 21
125.6090549999999
 31
0.0
  0
LINE
  5
D8
330
2
100
AcDbEntity
  8
0
 62
     3
100
AcDbLine
 10
152.2546639456997
 20
124.1771699999999
 30
0.0
 11
152.6258799456998
 21
124.5484009999999
 31
0.0
  0
CIRCLE
  5
D9
330
2
100
AcDbEntity
  8
0
 62
     3
100
AcDbCircle
 10
152.8027599456999
 20
125.0787349999999
 30
0.0
 40
1.9
  0
CIRCLE
  5
DA
330
2
100
AcDbEntity
  8
0
 62
     3
100
AcDbCircle
 10
152.8027599456999
 20
125.0787349999999
 30
0.0
 40
1.749999
  0
LINE
  5
DB
330
2
100
AcDbEntity
  8
0
 62
     3
100
AcDbLine
 10
151.9011479457
 20
125.626663
 30
0.0
 11
152.2547859456999
 21
125.9802249999999
 31
0.0
  0
LINE
  5
DC
330
2
100
AcDbEntity
  8
0
 62
     3
100
AcDbLine
 10
151.9011479457
 20
124.530716
 30
0.0
 11
152.2546639456997
 21
124.1771699999999
 31
0.0
  0
LINE
  5
DD
330
2
100
AcDbEntity
  8
0
 62
     3
100
AcDbLine
 10
151.9011479457
 20
125.626663
 30
0.0
 11
152.2723639456999
 21
125.255508
 31
0.0
  0
LINE
  5
DE
330
2
100
AcDbEntity
  8
0
 62
     3
100
AcDbLine
 10
151.9011479457
 20
124.530716
 30
0.0
 11
152.2723639456999
 21
124.9019469999999
 31
0.0
  0
ARC
  5
DF
330
2
100
AcDbEntity
  8
0
 62
     3
100
AcDbCircle
 10
152.0956059457
 20
125.0787349999999
 30
0.0
 40
0.25
100
AcDbArc
 50
314.995083
 51
45.00243899999996
  0
LINE
  5
E0
330
2
100
AcDbEntity
  8
0
 62
     3
100
AcDbLine
 10
153.3507329456998
 20
124.1771699999999
 30
0.0
 11
153.7042489456998
 21
124.530716
 31
0.0
  0
LINE
  5
E1
330
2
100
AcDbEntity
  8
0
 62
     3
100
AcDbLine
 10
153.3507329456998
 20
125.980286
 30
0.0
 11
153.7042489456998
 21
125.6267239999999
 31
0.0
  0
ARC
  5
E2
330
2
100
AcDbEntity
  8
0
 62
     3
100
AcDbCircle
 10
153.5097909456998
 20
125.0787199999999
 30
0.0
 40
0.25
100
AcDbArc
 50
134.9950739999999
 51
225.002424
  0
LINE
  5
E3
330
2
100
AcDbEntity
  8
0
 62
     3
100
AcDbLine
 10
153.3330329456999
 20
125.255508
 30
0.0
 11
153.7042489456998
 21
125.6267239999999
 31
0.0
  0
LINE
  5
E4
330
2
100
AcDbEntity
  8
0
 62
     3
100
AcDbLine
 10
153.3330329456999
 20
124.9019469999999
 30
0.0
 11
153.7042489456998
 21
124.530716
 31
0.0
  0
ARC
  5
E5
330
2
100
AcDbEntity
  8
0
 62
     3
100
AcDbCircle
 10
152.8027599456999
 20
125.785828
 30
0.0
 40
0.25
100
AcDbArc
 50
224.98271
 51
314.997484
  0
ARC
  5
E6
330
2
100
AcDbEntity
  8
0
 62
     3
100
AcDbCircle
 10
152.8026379456998
 20
124.3716279999999
 30
0.0
 40
0.25
100
AcDbArc
 50
44.982724
 51
134.997474
  0
LINE
  5
E7
330
2
100
AcDbEntity
  8
0
 62
     3
100
AcDbLine
 10
152.9795179456999
 20
124.5484009999999
 30
0.0
 11
153.3507329456998
 21
124.1771699999999
 31
0.0
  0
LINE
  5
E8
330
2
100
AcDbEntity
  8
0
 62
     3
100
AcDbLine
 10
152.9795179456999
 20
125.6090549999999
 30
0.0
 11
153.3507329456998
 21
125.980286
 31
0.0
  0
LINE
  5
E9
330
2
100
AcDbEntity
  8
0
 62
     3
100
AcDbLine
 10
157.8028819456999
 20
125.5848389999999
 30
0.0
 11
157.8028819456999
 21
130.5848389999999
 31
0.0
  0
LINE
  5
EA
330
2
100
AcDbEntity
  8
0
 62
     3
100
AcDbLine
 10
157.3028819456999
 20
125.5848389999999
 30
0.0
 11
157.8028819456999
 21
125.5848389999999
 31
0.0
  0
LINE
  5
EB
330
2
100
AcDbEntity
  8
0
 62
     3
100
AcDbLine
 10
157.3028819456999
 20
130.5848389999999
 30
0.0
 11
157.8028819456999
 21
130.5848389999999
 31
0.0
  0
LINE
  5
EC
330
2
100
AcDbEntity
  8
0
 62
     3
100
AcDbLine
 10
127.0528819456999
 20
182.0848389999999
 30
0.0
 11
155.8550059456998
 21
183.090576
 31
0.0
  0
LINE
  5
ED
330
2
100
AcDbEntity
  8
0
 62
     3
100
AcDbLine
 10
126.0528819456999
 20
183.0848389999999
 30
0.0
 11
155.8550059456998
 21
184.1254879999999
 31
0.0
  0
LINE
  5
EE
330
2
100
AcDbEntity
  8
0
 62
     3
100
AcDbLine
 10
124.5528819457
 20
194.084839
 30
0.0
 11
155.8288829456999
 21
193.5388179999999
 31
0.0
  0
LINE
  5
EF
330
2
100
AcDbEntity
  8
0
100
AcDbLine
 10
210.0
 20
297.0
 30
0.0
 11
0.0
 21
297.0
 31
0.0
  0
ARC
  5
F2
330
2
100
AcDbEntity
  8
0
 62
     3
100
AcDbCircle
 10
80.53553294569999
 20
191.0847169999999
 30
0.0
 40
3.0
100
AcDbArc
 50
0.0
 51
90.0
  0
LINE
  5
F3
330
2
100
AcDbEntity
  8
0
  6
CENTER
 62
     3
100
AcDbLine
 10
75.7354839457
 20
191.0848389999999
 30
0.0
 11
85.33545894569998
 21
191.0848389999999
 31
0.0
  0
LINE
  5
FF
330
2
100
AcDbEntity
  8
0
 62
     3
100
AcDbLine
 10
80.53551694569998
 20
194.084839
 30
0.0
 11
43.53554794569999
 21
194.084839
 31
0.0
  0
LINE
  5
100
330
2
100
AcDbEntity
  8
0
 62
     3
100
AcDbLine
 10
74.92304494569999
 20
191.834839
 30
0.0
 11
49.14801994569998
 21
191.834839
 31
0.0
  0
LINE
  5
101
330
2
100
AcDbEntity
  8
0
 62
     3
100
AcDbLine
 10
74.92304494569999
 20
191.3348389999999
 30
0.0
 11
49.14801994569998
 21
191.3348389999999
 31
0.0
  0
ARC
  5
102
330
2
100
AcDbEntity
  8
0
 62
     3
100
AcDbCircle
 10
43.5355329457
 20
191.0848389999999
 30
0.0
 40
3.75
100
AcDbArc
 50
282.555587
 51
347.4427439999999
  0
ARC
  5
103
330
2
100
AcDbEntity
  8
0
 62
     3
100
AcDbCircle
 10
43.5355329457
 20
191.0848389999999
 30
0.0
 40
4.25
100
AcDbArc
 50
282.555716
 51
347.443637
  0
LINE
  5
104
330
2
100
AcDbEntity
  8
0
  6
CENTER
 62
     3
100
AcDbLine
 10
43.5355329457
 20
186.2846679999999
 30
0.0
 11
43.5355329457
 21
195.8846439999999
 31
0.0
  0
LINE
  5
105
330
2
100
AcDbEntity
  8
0
 62
     3
100
AcDbLine
 10
41.7776289457
 20
189.680298
 30
0.0
 11
42.82842494569999
 21
190.731079
 31
0.0
  0
CIRCLE
  5
106
330
2
100
AcDbEntity
  8
0
 62
     3
100
AcDbCircle
 10
43.5355329457
 20
191.0847169999999
 30
0.0
 40
2.249998999999998
  0
LINE
  5
107
330
2
100
AcDbEntity
  8
0
 62
     3
100
AcDbLine
 10
42.13115894569996
 20
189.326782
 30
0.0
 11
43.18197094569998
 21
190.3775629999999
 31
0.0
  0
LINE
  5
108
330
2
100
AcDbEntity
  8
0
  6
CENTER
 62
     3
100
AcDbLine
 10
51.0355329457
 20
185.084595
 30
0.0
 11
43.0355329457
 21
185.0848389999999
 31
0.0
  0
ARC
  5
109
330
2
100
AcDbEntity
  8
0
 62
     3
100
AcDbCircle
 10
44.78551694569996
 20
185.4722899999999
 30
0.0
 40
1.5
100
AcDbArc
 50
102.555043
 51
180.0
  0
ARC
  5
10A
330
2
100
AcDbEntity
  8
0
 62
     3
100
AcDbCircle
 10
44.78551694569996
 20
185.4722899999999
 30
0.0
 40
2.0
100
AcDbArc
 50
102.555502
 51
180.0
  0
LINE
  5
10B
330
2
100
AcDbEntity
  8
0
  6
CENTER
 62
     3
100
AcDbLine
 10
47.03551694569997
 20
181.084595
 30
0.0
 11
47.03554794569996
 21
189.0847169999999
 31
0.0
  0
ARC
  5
10C
330
2
100
AcDbEntity
  8
0
 62
     3
100
AcDbCircle
 10
43.5355329457
 20
191.0847169999999
 30
0.0
 40
3.0
100
AcDbArc
 50
89.99985399999998
 51
180.0
  0
LINE
  5
10D
330
2
100
AcDbEntity
  8
0
  6
CENTER
 62
     3
100
AcDbLine
 10
38.73548394569997
 20
191.0847169999999
 30
0.0
 11
48.3354589457
 21
191.0847169999999
 31
0.0
  0
ARC
  5
10E
330
2
100
AcDbEntity
  8
0
 62
     3
100
AcDbCircle
 10
49.14801994569998
 20
189.8348389999999
 30
0.0
 40
1.5
100
AcDbArc
 50
89.99970899999999
 51
167.4455889999999
  0
ARC
  5
10F
330
2
100
AcDbEntity
  8
0
 62
     3
100
AcDbCircle
 10
49.14801994569998
 20
189.8348389999999
 30
0.0
 40
2.0
100
AcDbArc
 50
89.99978099999998
 51
167.446774
  0
LINE
  5
110
330
2
100
AcDbEntity
  8
0
 62
     3
100
AcDbLine
 10
44.20728594569999
 20
190.0593259999999
 30
0.0
 11
44.56083194569997
 21
190.4128419999999
 31
0.0
  0
LINE
  5
111
330
2
100
AcDbEntity
  8
0
 62
     3
100
AcDbLine
 10
44.24262494569997
 20
190.731079
 30
0.0
 11
44.56083194569997
 21
190.4128419999999
 31
0.0
  0
LINE
  5
112
330
2
100
AcDbEntity
  8
0
 62
     3
100
AcDbLine
 10
44.24262494569997
 20
191.4382319999999
 30
0.0
 11
45.2935279457
 21
192.4888919999999
 31
0.0
  0
LINE
  5
113
330
2
100
AcDbEntity
  8
0
 62
     3
100
AcDbLine
 10
43.88907894569999
 20
191.7917479999999
 30
0.0
 11
44.93979894569998
 21
192.8426509999999
 31
0.0
  0
ARC
  5
114
330
2
100
AcDbEntity
  8
0
 62
     3
100
AcDbCircle
 10
43.5355329457
 20
192.145264
 30
0.0
 40
0.5
100
AcDbArc
 50
224.996909
 51
315.002473
  0
ARC
  5
115
330
2
100
AcDbEntity
  8
0
 62
     3
100
AcDbCircle
 10
44.5961859457
 20
191.084595
 30
0.0
 40
0.5
100
AcDbArc
 50
134.993818
 51
224.996909
  0
ARC
  5
116
330
2
100
AcDbEntity
  8
0
 62
     3
100
AcDbCircle
 10
43.53551694569996
 20
190.0240479999999
 30
0.0
 40
0.5
100
AcDbArc
 50
44.99567299999998
 51
135.002473
  0
LINE
  5
117
330
2
100
AcDbEntity
  8
0
 62
     3
100
AcDbLine
 10
43.88907894569999
 20
190.3775629999999
 30
0.0
 11
44.20728594569999
 21
190.0593259999999
 31
0.0
  0
LINE
  5
118
330
2
100
AcDbEntity
  8
0
 62
     3
100
AcDbLine
 10
42.51021794569999
 20
191.756348
 30
0.0
 11
42.8637799457
 21
192.109985
 31
0.0
  0
LINE
  5
119
330
2
100
AcDbEntity
  8
0
 62
     3
100
AcDbLine
 10
42.51021794569999
 20
191.756348
 30
0.0
 11
42.82842494569999
 21
191.4382319999999
 31
0.0
  0
LINE
  5
11A
330
2
100
AcDbEntity
  8
0
 62
     3
100
AcDbLine
 10
42.8637799457
 20
192.109985
 30
0.0
 11
43.18197094569998
 21
191.7917479999999
 31
0.0
  0
ARC
  5
11B
330
2
100
AcDbEntity
  8
0
 62
     3
100
AcDbCircle
 10
42.47486394569998
 20
191.0847169999999
 30
0.0
 40
0.5
100
AcDbArc
 50
314.9938179999998
 51
44.99567300000001
  0
LINE
  5
11C
330
2
100
AcDbEntity
  8
0
 62
     3
100
AcDbLine
 10
79.13115894569997
 20
189.326904
 30
0.0
 11
80.18197094569998
 21
190.377686
 31
0.0
  0
LINE
  5
11D
330
2
100
AcDbEntity
  8
0
  6
CENTER
 62
     3
100
AcDbLine
 10
80.53553294569999
 20
186.28479
 30
0.0
 11
80.53553294569999
 21
195.8847659999999
 31
0.0
  0
ARC
  5
11E
330
2
100
AcDbEntity
  8
0
 62
     3
100
AcDbCircle
 10
80.53553294569999
 20
191.0848389999999
 30
0.0
 40
3.75
100
AcDbArc
 50
192.5571419999999
 51
257.4441859999999
  0
ARC
  5
11F
330
2
100
AcDbEntity
  8
0
 62
     3
100
AcDbCircle
 10
80.53553294569999
 20
191.0848389999999
 30
0.0
 40
4.25
100
AcDbArc
 50
192.5563629999999
 51
257.444161
  0
CIRCLE
  5
120
330
2
100
AcDbEntity
  8
0
 62
     3
100
AcDbCircle
 10
80.53553294569999
 20
191.0848389999999
 30
0.0
 40
2.249998999999998
  0
LINE
  5
121
330
2
100
AcDbEntity
  8
0
 62
     3
100
AcDbLine
 10
78.7776289457
 20
189.68042
 30
0.0
 11
79.82842494569999
 21
190.731201
 31
0.0
  0
LINE
  5
122
330
2
100
AcDbEntity
  8
0
  6
CENTER
 62
     3
100
AcDbLine
 10
73.03551694569998
 20
185.084595
 30
0.0
 11
81.0355329457
 21
185.0848389999999
 31
0.0
  0
ARC
  5
123
330
2
100
AcDbEntity
  8
0
 62
     3
100
AcDbCircle
 10
79.2855329457
 20
185.4722899999999
 30
0.0
 40
1.5
100
AcDbArc
 50
0.0
 51
77.44438800000001
  0
ARC
  5
124
330
2
100
AcDbEntity
  8
0
 62
     3
100
AcDbCircle
 10
79.2855329457
 20
185.4722899999999
 30
0.0
 40
2.0
100
AcDbArc
 50
0.0
 51
77.44449799999998
  0
LINE
  5
125
330
2
100
AcDbEntity
  8
0
  6
CENTER
 62
     3
100
AcDbLine
 10
77.03553294569998
 20
181.084595
 30
0.0
 11
77.03551694569998
 21
189.084839
 31
0.0
  0
ARC
  5
126
330
2
100
AcDbEntity
  8
0
 62
     3
100
AcDbCircle
 10
74.92304494569999
 20
189.8348389999999
 30
0.0
 40
2.0
100
AcDbArc
 50
12.55322599999999
 51
90.0
  0
ARC
  5
127
330
2
100
AcDbEntity
  8
0
 62
     3
100
AcDbCircle
 10
74.92304494569999
 20
189.8348389999999
 30
0.0
 40
1.5
100
AcDbArc
 50
12.554411
 51
90.0
  0
ARC
  5
128
330
2
100
AcDbEntity
  8
0
 62
     3
100
AcDbCircle
 10
80.53553294569999
 20
192.1453859999999
 30
0.0
 40
0.5
100
AcDbArc
 50
224.996291
 51
315.0018549999998
  0
ARC
  5
129
330
2
100
AcDbEntity
  8
0
 62
     3
100
AcDbCircle
 10
80.53551694569998
 20
190.02417
 30
0.0
 40
0.5
100
AcDbArc
 50
44.996291
 51
135.0030909999998
  0
LINE
  5
12A
330
2
100
AcDbEntity
  8
0
 62
     3
100
AcDbLine
 10
79.51021794569999
 20
191.7564699999999
 30
0.0
 11
79.8637799457
 21
192.1101069999999
 31
0.0
  0
LINE
  5
12B
330
2
100
AcDbEntity
  8
0
 62
     3
100
AcDbLine
 10
79.8637799457
 20
192.1101069999999
 30
0.0
 11
80.18197094569998
 21
191.7918699999999
 31
0.0
  0
LINE
  5
12C
330
2
100
AcDbEntity
  8
0
 62
     3
100
AcDbLine
 10
79.51021794569999
 20
191.7564699999999
 30
0.0
 11
79.82842494569999
 21
191.438354
 31
0.0
  0
ARC
  5
12D
330
2
100
AcDbEntity
  8
0
 62
     3
100
AcDbCircle
 10
79.47486394569999
 20
191.0848389999999
 30
0.0
 40
0.5
100
AcDbArc
 50
314.9932000000001
 51
44.99629099999999
  0
LINE
  5
12E
330
2
100
AcDbEntity
  8
0
 62
     3
100
AcDbLine
 10
81.24262494569999
 20
191.438354
 30
0.0
 11
82.29352794569999
 21
192.489014
 31
0.0
  0
LINE
  5
12F
330
2
100
AcDbEntity
  8
0
 62
     3
100
AcDbLine
 10
81.2072859457
 20
190.059448
 30
0.0
 11
81.56083194569999
 21
190.4129639999999
 31
0.0
  0
ARC
  5
130
330
2
100
AcDbEntity
  8
0
 62
     3
100
AcDbCircle
 10
81.5961859457
 20
191.0847169999999
 30
0.0
 40
0.5
100
AcDbArc
 50
134.994436
 51
224.996291
  0
LINE
  5
131
330
2
100
AcDbEntity
  8
0
 62
     3
100
AcDbLine
 10
80.88907894569999
 20
190.377686
 30
0.0
 11
81.2072859457
 21
190.059448
 31
0.0
  0
LINE
  5
132
330
2
100
AcDbEntity
  8
0
 62
     3
100
AcDbLine
 10
80.88907894569999
 20
191.7918699999999
 30
0.0
 11
81.93979894569997
 21
192.8427729999999
 31
0.0
  0
LINE
  5
133
330
2
100
AcDbEntity
  8
0
 62
     3
100
AcDbLine
 10
81.24262494569999
 20
190.731201
 30
0.0
 11
81.56083194569999
 21
190.4129639999999
 31
0.0
  0
LINE
  5
135
330
2
100
AcDbEntity
  8
0
 62
     3
100
AcDbLine
 10
121.3528089456999
 20
189.084839
 30
0.0
 11
121.3528089456999
 21
193.0848389999999
 31
0.0
  0
ARC
  5
136
330
2
100
AcDbEntity
  8
0
 62
     3
100
AcDbCircle
 10
125.7025399456999
 20
191.0848389999999
 30
0.0
 40
6.0
100
AcDbArc
 50
163.8083189999998
 51
196.190516
  0
LINE
  5
137
330
2
100
AcDbEntity
  8
0
 62
     3
100
AcDbLine
 10
121.3528089456999
 20
193.3348389999999
 30
0.0
 11
121.3528089456999
 21
188.8348389999999
 31
0.0
  0
ARC
  5
138
330
2
100
AcDbEntity
  8
0
 62
     3
100
AcDbCircle
 10
120.7087659456999
 20
189.6348879999999
 30
0.0
 40
0.8
100
AcDbArc
 50
196.189132
 51
270.0
  0
LINE
  5
139
330
2
100
AcDbEntity
  8
0
 62
     3
100
AcDbLine
 10
121.1155039456998
 20
187.3552249999999
 30
0.0
 11
117.9275159456999
 21
186.952637
 31
0.0
  0
ARC
  5
13A
330
2
100
AcDbEntity
  8
0
 62
     3
100
AcDbCircle
 10
118.0528819457
 20
185.960449
 30
0.0
 40
1.0
100
AcDbArc
 50
97.20133
 51
180.0
  0
ARC
  5
13B
330
2
100
AcDbEntity
  8
0
 62
     3
100
AcDbCircle
 10
121.0528819456998
 20
187.8511959999999
 30
0.0
 40
0.5
100
AcDbArc
 50
277.196098
 51
0.0
  0
LINE
  5
13C
330
2
100
AcDbEntity
  8
0
 62
     3
100
AcDbLine
 10
121.3528089456999
 20
189.084839
 30
0.0
 11
121.5528819456998
 21
189.084839
 31
0.0
  0
LINE
  5
13D
330
2
100
AcDbEntity
  8
0
 62
     3
100
AcDbLine
 10
120.7087659456999
 20
188.8349609999999
 30
0.0
 11
121.3525639456999
 21
188.8348389999999
 31
0.0
  0
LINE
  5
13E
330
2
100
AcDbEntity
  8
0
 62
     3
100
AcDbLine
 10
127.0528819456999
 20
182.0848389999999
 30
0.0
 11
126.0528819456999
 21
183.0848389999999
 31
0.0
  0
ARC
  5
13F
330
2
100
AcDbEntity
  8
0
 62
     3
100
AcDbCircle
 10
120.7087659456999
 20
192.5349119999999
 30
0.0
 40
0.8
100
AcDbArc
 50
90.0
 51
163.810799
  0
LINE
  5
140
330
2
100
AcDbEntity
  8
0
  6
CENTER
 62
     3
100
AcDbLine
 10
123.0025889456999
 20
191.0848389999999
 30
0.0
 11
118.8525639456998
 21
191.0849609999999
 31
0.0
  0
LINE
  5
141
330
2
100
AcDbEntity
  8
0
 62
     3
100
AcDbLine
 10
119.7275639456998
 20
191.6317139999999
 30
0.0
 11
117.9424079456999
 21
191.4333499999999
 31
0.0
  0
ARC
  5
142
330
2
100
AcDbEntity
  8
0
 62
     3
100
AcDbCircle
 10
118.0528819457
 20
190.4394529999999
 30
0.0
 40
1.0
100
AcDbArc
 50
96.34251800000001
 51
180.0
  0
LINE
  5
143
330
2
100
AcDbEntity
  8
0
 62
     3
100
AcDbLine
 10
124.5528819457
 20
194.0847169999999
 30
0.0
 11
122.0528819456998
 21
194.0847169999999
 31
0.0
  0
ARC
  5
144
330
2
100
AcDbEntity
  8
0
 62
     3
100
AcDbCircle
 10
122.0528819456998
 20
193.584595
 30
0.0
 40
0.5
100
AcDbArc
 50
90.0
 51
180.0
  0
LINE
  5
145
330
2
100
AcDbEntity
  8
0
 62
     3
100
AcDbLine
 10
121.3528089456999
 20
193.0848389999999
 30
0.0
 11
121.5528819456998
 21
193.0848389999999
 31
0.0
  0
LINE
  5
146
330
2
100
AcDbEntity
  8
0
 62
     3
100
AcDbLine
 10
120.7087659456999
 20
193.3348389999999
 30
0.0
 11
121.3525639456999
 21
193.3348389999999
 31
0.0
  0
LINE
  5
148
330
2
100
AcDbEntity
  8
0
  6
CENTER
 62
     3
100
AcDbLine
 10
155.5273689456998
 20
185.0848389999999
 30
0.0
 11
160.6802009456997
 21
185.0848389999999
 31
0.0
  0
ARC
  5
149
330
2
100
AcDbEntity
  8
0
 62
     3
100
AcDbCircle
 10
155.8028819457
 20
185.624634
 30
0.0
 40
1.5
100
AcDbArc
 50
271.995763
 51
0.0
  0
ARC
  5
14A
330
2
100
AcDbEntity
  8
0
 62
     3
100
AcDbCircle
 10
155.8028819457
 20
184.5897219999999
 30
0.0
 40
1.5
100
AcDbArc
 50
271.995763
 51
0.0
  0
LINE
  5
14B
330
2
100
AcDbEntity
  8
0
 62
     3
100
AcDbLine
 10
157.8028819456999
 20
187.5848389999999
 30
0.0
 11
157.8028819456999
 21
182.5848389999999
 31
0.0
  0
LINE
  5
14C
330
2
100
AcDbEntity
  8
0
 62
     3
100
AcDbLine
 10
157.3028819456999
 20
182.5848389999999
 30
0.0
 11
157.8028819456999
 21
182.5848389999999
 31
0.0
  0
LINE
  5
14D
330
2
100
AcDbEntity
  8
0
 62
     3
100
AcDbLine
 10
157.3028819456999
 20
187.5848389999999
 30
0.0
 11
157.8028819456999
 21
187.5848389999999
 31
0.0
  0
ARC
  5
14E
330
2
100
AcDbEntity
  8
0
 62
     3
100
AcDbCircle
 10
155.8027599456998
 20
192.0390629999999
 30
0.0
 40
1.5
100
AcDbArc
 50
0.0
 51
89.002122
  0
TEXT
  5
161
330
2
100
AcDbEntity
  8
0
 62
     7
100
AcDbText
 10
146.0
 20
65.00000295525
 30
0.0
 40
2.999994089499998
  1
AGA210Y
 11
146.0
 21
66.5
 31
0.0
100
AcDbText
 73
     2
  0
ENDSEC
  0
SECTION
  2
OBJECTS
  0
DICTIONARY
  5
7
330
0
100
AcDbDictionary
281
     1
  3
ACAD_COLOR
350
16A
  3
ACAD_GROUP
350
1F
  3
ACAD_LAYOUT
350
B
  3
ACAD_MATERIAL
350
169
  3
ACAD_MLINESTYLE
350
20
  3
ACAD_PLOTSETTINGS
350
21
  3
ACAD_PLOTSTYLENAME
350
6
  3
ACAD_TABLESTYLE
350
16B
  3
ACDBHEADERROUNDTRIPXREC
350
171
  3
AcDbVariableDictionary
350
162
  0
DICTIONARY
  5
16A
102
{ACAD_REACTORS
330
7
102
}
330
7
100
AcDbDictionary
281
     1
  0
DICTIONARY
  5
1F
102
{ACAD_REACTORS
330
7
102
}
330
7
100
AcDbDictionary
281
     1
  0
DICTIONARY
  5
B
102
{ACAD_REACTORS
330
7
102
}
330
7
100
AcDbDictionary
281
     1
  3
Model
350
A
  3
ﾚｲｱｳﾄ1
350
F
  0
DICTIONARY
  5
169
102
{ACAD_REACTORS
330
7
102
}
330
7
100
AcDbDictionary
281
     1
  0
DICTIONARY
  5
20
102
{ACAD_REACTORS
330
7
102
}
330
7
100
AcDbDictionary
281
     1
  3
Standard
350
22
  0
DICTIONARY
  5
21
102
{ACAD_REACTORS
330
7
102
}
330
7
100
AcDbDictionary
281
     1
  0
ACDBDICTIONARYWDFLT
  5
6
102
{ACAD_REACTORS
330
7
102
}
330
7
100
AcDbDictionary
281
     1
  3
Normal
350
5
100
AcDbDictionaryWithDefault
340
5
  0
DICTIONARY
  5
16B
102
{ACAD_REACTORS
330
7
102
}
330
7
100
AcDbDictionary
281
     1
  3
Standard
350
16C
  0
DICTIONARY
  5
171
102
{ACAD_REACTORS
330
7
102
}
330
7
100
AcDbDictionary
281
     1
  0
DICTIONARY
  5
162
102
{ACAD_REACTORS
330
7
102
}
330
7
100
AcDbDictionary
281
     1
  3
CTABLESTYLE
350
16E
  3
DIMASSOC
350
163
  3
PROJECTNAME
350
16F
  0
LAYOUT
  5
A
102
{ACAD_XDICTIONARY
360
172
102
}
102
{ACAD_REACTORS
330
B
102
}
330
B
100
AcDbPlotSettings
  1

  2
C:\Program Files\AutoCAD 2000i\plotters\DWF Classic.pc3
  4

  6

 40
0.0
 41
0.0
 42
0.0
 43
0.0
 44
0.0
 45
0.0
 46
0.0
 47
0.0
 48
0.0
 49
0.0
140
0.0
141
0.0
142
1.0
143
1.0
 70
  1712
 72
     0
 73
     0
 74
     0
  7

 75
     0
147
1.0
148
0.0
149
0.0
100
AcDbLayout
  1
Model
 70
     1
 71
     0
 10
0.0
 20
0.0
 11
12.0
 21
9.0
 12
0.0
 22
0.0
 32
0.0
 14
0.0
 24
0.0
 34
0.0
 15
0.0
 25
0.0
 35
0.0
146
0.0
 13
0.0
 23
0.0
 33
0.0
 16
1.0
 26
0.0
 36
0.0
 17
0.0
 27
1.0
 37
0.0
 76
     0
330
2
  0
LAYOUT
  5
F
102
{ACAD_XDICTIONARY
360
174
102
}
102
{ACAD_REACTORS
330
B
102
}
330
B
100
AcDbPlotSettings
  1

  2
C:\Program Files\AutoCAD 2000i\plotters\DWF Classic.pc3
  4

  6

 40
0.0
 41
0.0
 42
0.0
 43
0.0
 44
0.0
 45
0.0
 46
0.0
 47
0.0
 48
0.0
 49
0.0
140
0.0
141
0.0
142
1.0
143
1.0
 70
   688
 72
     0
 73
     0
 74
     5
  7

 75
    16
147
1.0
148
0.0
149
0.0
100
AcDbLayout
  1
ﾚｲｱｳﾄ1
 70
     1
 71
     1
 10
0.0
 20
0.0
 11
12.0
 21
9.0
 12
0.0
 22
0.0
 32
0.0
 14
1.000000000000000E+20
 24
1.000000000000000E+20
 34
1.000000000000000E+20
 15
-1.000000000000000E+20
 25
-1.000000000000000E+20
 35
-1.000000000000000E+20
146
0.0
 13
0.0
 23
0.0
 33
0.0
 16
1.0
 26
0.0
 36
0.0
 17
0.0
 27
1.0
 37
0.0
 76
     0
330
C
  0
MLINESTYLE
  5
22
102
{ACAD_REACTORS
330
20
102
}
330
20
100
AcDbMlineStyle
  2
STANDARD
 70
     0
  3

 62
   256
 51
90.0
 52
90.0
 71
     2
 49
0.5
 62
   256
  6
BYLAYER
 49
-0.5
 62
   256
  6
BYLAYER
  0
ACDBPLACEHOLDER
  5
5
102
{ACAD_REACTORS
330
6
102
}
330
6
  0
TABLESTYLE
  5
16C
102
{ACAD_REACTORS
330
16B
102
}
330
16B
100
AcDbTableStyle
  3
Standard
 70
     0
 71
     0
 40
0.06
 41
0.06
280
     0
281
     0
  7
STANDARD
140
0.18
170
     2
 62
     0
 63
     7
283
     0
274
    -2
284
     1
 64
     0
275
    -2
285
     1
 65
     0
276
    -2
286
     1
 66
     0
277
    -2
287
     1
 67
     0
278
    -2
288
     1
 68
     0
279
    -2
289
     1
 69
     0
  7
STANDARD
140
0.25
170
     5
 62
     0
 63
     7
283
     0
274
    -2
284
     1
 64
     0
275
    -2
285
     1
 65
     0
276
    -2
286
     1
 66
     0
277
    -2
287
     1
 67
     0
278
    -2
288
     1
 68
     0
279
    -2
289
     1
 69
     0
  7
STANDARD
140
0.18
170
     5
 62
     0
 63
     7
283
     0
274
    -2
284
     1
 64
     0
275
    -2
285
     1
 65
     0
276
    -2
286
     1
 66
     0
277
    -2
287
     1
 67
     0
278
    -2
288
     1
 68
     0
279
    -2
289
     1
 69
     0
  0
DICTIONARYVAR
  5
16E
102
{ACAD_REACTORS
330
162
102
}
330
162
100
DictionaryVariables
280
     0
  1
STANDARD
  0
DICTIONARYVAR
  5
163
102
{ACAD_REACTORS
330
162
102
}
330
162
100
DictionaryVariables
280
     0
  1
1
  0
DICTIONARYVAR
  5
16F
102
{ACAD_REACTORS
330
162
102
}
330
162
100
DictionaryVariables
280
     0
  1

  0
DICTIONARY
  5
172
330
A
100
AcDbDictionary
280
     1
281
     1
  3
ACAD_XREC_ROUNDTRIP
360
173
  0
DICTIONARY
  5
174
330
F
100
AcDbDictionary
280
     1
281
     1
  3
ACAD_XREC_ROUNDTRIP
360
175
  0
XRECORD
  5
173
102
{ACAD_REACTORS
330
172
102
}
330
172
100
AcDbXrecord
280
     1
102
SHADEPLOT
 70
     0
102
SHADEPLOTRESLEVEL
 70
     2
102
SHADEPLOTCUSTOMDPI
 70
   300
  0
XRECORD
  5
175
102
{ACAD_REACTORS
330
174
102
}
330
174
100
AcDbXrecord
280
     1
102
SHADEPLOT
 70
     0
102
SHADEPLOTRESLEVEL
 70
     2
102
SHADEPLOTCUSTOMDPI
 70
   300
  0
ENDSEC
  0
EOF
