  0
SECTION
  2
HEADER
  9
$ACADVER
  1
AC1015
  9
$ACADMAINTVER
 70
    13
  9
$DWGCODEPAGE
  3
ANSI_932
  9
$INSBASE
 10
0.0
 20
0.0
 30
0.0
  9
$EXTMIN
 10
0.0
 20
0.0
 30
0.0
  9
$EXTMAX
 10
210.0
 20
297.0
 30
0.0
  9
$LIMMIN
 10
-194.0880859375
 20
-3.174999999999998
  9
$LIMMAX
 10
3.174999999999998
 20
291.2585876465
  9
$ORTHOMODE
 70
     0
  9
$REGENMODE
 70
     1
  9
$FILLMODE
 70
     1
  9
$QTEXTMODE
 70
     0
  9
$MIRRTEXT
 70
     0
  9
$LTSCALE
 40
1.0
  9
$ATTMODE
 70
     1
  9
$TEXTSIZE
 40
2.999994039499997
  9
$TRACEWID
 40
0.05
  9
$TEXTSTYLE
  7
STANDARD
  9
$CLAYER
  8
0
  9
$CELTYPE
  6
ByLayer
  9
$CECOLOR
 62
   256
  9
$CELTSCALE
 40
1.0
  9
$DISPSILH
 70
     0
  9
$DIMSCALE
 40
1.0
  9
$DIMASZ
 40
1.9727878465
  9
$DIMEXO
 40
2.539999961899999
  9
$DIMDLI
 40
0.38
  9
$DIMRND
 40
0.0
  9
$DIMDLE
 40
0.0
  9
$DIMEXE
 40
3.809999942799997
  9
$DIMTP
 40
0.0
  9
$DIMTM
 40
0.0
  9
$DIMTXT
 40
2.999994039499997
  9
$DIMCEN
 40
0.09
  9
$DIMTSZ
 40
0.0
  9
$DIMTOL
 70
     0
  9
$DIMLIM
 70
     0
  9
$DIMTIH
 70
     0
  9
$DIMTOH
 70
     1
  9
$DIMSE1
 70
     0
  9
$DIMSE2
 70
     0
  9
$DIMTAD
 70
     0
  9
$DIMZIN
 70
     0
  9
$DIMBLK
  1

  9
$DIMASO
 70
     1
  9
$DIMSHO
 70
     0
  9
$DIMPOST
  1

  9
$DIMAPOST
  1

  9
$DIMALT
 70
     0
  9
$DIMALTD
 70
     2
  9
$DIMALTF
 40
25.4
  9
$DIMLFAC
 40
1.0
  9
$DIMTOFL
 70
     0
  9
$DIMTVP
 40
0.0
  9
$DIMTIX
 70
     0
  9
$DIMSOXD
 70
     0
  9
$DIMSAH
 70
     0
  9
$DIMBLK1
  1

  9
$DIMBLK2
  1

  9
$DIMSTYLE
  2
Standard
  9
$DIMCLRD
 70
     0
  9
$DIMCLRE
 70
     0
  9
$DIMCLRT
 70
     0
  9
$DIMTFAC
 40
1.0
  9
$DIMGAP
 40
0.09
  9
$DIMJUST
 70
     0
  9
$DIMSD1
 70
     0
  9
$DIMSD2
 70
     0
  9
$DIMTOLJ
 70
     1
  9
$DIMTZIN
 70
     0
  9
$DIMALTZ
 70
     0
  9
$DIMALTTZ
 70
     0
  9
$DIMUPT
 70
     0
  9
$DIMDEC
 70
     4
  9
$DIMTDEC
 70
     4
  9
$DIMALTU
 70
     2
  9
$DIMALTTD
 70
     2
  9
$DIMTXSTY
  7
STANDARD
  9
$DIMAUNIT
 70
     0
  9
$DIMADEC
 70
     0
  9
$DIMALTRND
 40
0.0
  9
$DIMAZIN
 70
     0
  9
$DIMDSEP
 70
    46
  9
$DIMATFIT
 70
     3
  9
$DIMFRAC
 70
     0
  9
$DIMLDRBLK
  1

  9
$DIMLUNIT
 70
     2
  9
$DIMLWD
 70
    -2
  9
$DIMLWE
 70
    -2
  9
$DIMTMOVE
 70
     0
  9
$LUNITS
 70
     2
  9
$LUPREC
 70
     3
  9
$SKETCHINC
 40
0.1
  9
$FILLETRAD
 40
0.0625
  9
$AUNITS
 70
     0
  9
$AUPREC
 70
     0
  9
$MENU
  1
ACAD
  9
$ELEVATION
 40
0.0
  9
$PELEVATION
 40
0.0
  9
$THICKNESS
 40
0.0
  9
$LIMCHECK
 70
     0
  9
$CHAMFERA
 40
0.0
  9
$CHAMFERB
 40
0.0
  9
$CHAMFERC
 40
0.0
  9
$CHAMFERD
 40
0.0
  9
$SKPOLY
 70
     0
  9
$TDCREATE
 40
2453382.566898148
  9
$TDUCREATE
 40
2453382.191898148
  9
$TDUPDATE
 40
2453395.583626481
  9
$TDUUPDATE
 40
2453395.208626481
  9
$TDINDWG
 40
0.0014697222
  9
$TDUSRTIMER
 40
0.0014695370
  9
$USRTIMER
 70
     1
  9
$ANGBASE
 50
0.0
  9
$ANGDIR
 70
     0
  9
$PDMODE
 70
     0
  9
$PDSIZE
 40
0.0
  9
$PLINEWID
 40
0.0
  9
$SPLFRAME
 70
     0
  9
$SPLINETYPE
 70
     6
  9
$SPLINESEGS
 70
     8
  9
$HANDSEED
  5
333
  9
$SURFTAB1
 70
     6
  9
$SURFTAB2
 70
     6
  9
$SURFTYPE
 70
     6
  9
$SURFU
 70
     6
  9
$SURFV
 70
     6
  9
$UCSBASE
  2

  9
$UCSNAME
  2

  9
$UCSORG
 10
0.0
 20
0.0
 30
0.0
  9
$UCSXDIR
 10
1.0
 20
0.0
 30
0.0
  9
$UCSYDIR
 10
0.0
 20
1.0
 30
0.0
  9
$UCSORTHOREF
  2

  9
$UCSORTHOVIEW
 70
     0
  9
$UCSORGTOP
 10
0.0
 20
0.0
 30
0.0
  9
$UCSORGBOTTOM
 10
0.0
 20
0.0
 30
0.0
  9
$UCSORGLEFT
 10
0.0
 20
0.0
 30
0.0
  9
$UCSORGRIGHT
 10
0.0
 20
0.0
 30
0.0
  9
$UCSORGFRONT
 10
0.0
 20
0.0
 30
0.0
  9
$UCSORGBACK
 10
0.0
 20
0.0
 30
0.0
  9
$PUCSBASE
  2

  9
$PUCSNAME
  2

  9
$PUCSORG
 10
0.0
 20
0.0
 30
0.0
  9
$PUCSXDIR
 10
1.0
 20
0.0
 30
0.0
  9
$PUCSYDIR
 10
0.0
 20
1.0
 30
0.0
  9
$PUCSORTHOREF
  2

  9
$PUCSORTHOVIEW
 70
     0
  9
$PUCSORGTOP
 10
0.0
 20
0.0
 30
0.0
  9
$PUCSORGBOTTOM
 10
0.0
 20
0.0
 30
0.0
  9
$PUCSORGLEFT
 10
0.0
 20
0.0
 30
0.0
  9
$PUCSORGRIGHT
 10
0.0
 20
0.0
 30
0.0
  9
$PUCSORGFRONT
 10
0.0
 20
0.0
 30
0.0
  9
$PUCSORGBACK
 10
0.0
 20
0.0
 30
0.0
  9
$USERI1
 70
    24
  9
$USERI2
 70
     0
  9
$USERI3
 70
     0
  9
$USERI4
 70
     0
  9
$USERI5
 70
     0
  9
$USERR1
 40
0.0
  9
$USERR2
 40
0.0
  9
$USERR3
 40
0.0
  9
$USERR4
 40
0.0
  9
$USERR5
 40
0.0
  9
$WORLDVIEW
 70
     1
  9
$SHADEDGE
 70
     3
  9
$SHADEDIF
 70
    70
  9
$TILEMODE
 70
     1
  9
$MAXACTVP
 70
    64
  9
$PINSBASE
 10
0.0
 20
0.0
 30
0.0
  9
$PLIMCHECK
 70
     0
  9
$PEXTMIN
 10
1.000000000000000E+20
 20
1.000000000000000E+20
 30
1.000000000000000E+20
  9
$PEXTMAX
 10
-1.000000000000000E+20
 20
-1.000000000000000E+20
 30
-1.000000000000000E+20
  9
$PLIMMIN
 10
0.0
 20
0.0
  9
$PLIMMAX
 10
12.0
 20
9.0
  9
$UNITMODE
 70
     0
  9
$VISRETAIN
 70
     1
  9
$PLINEGEN
 70
     0
  9
$PSLTSCALE
 70
     1
  9
$TREEDEPTH
 70
  3020
  9
$CMLSTYLE
  2
Standard
  9
$CMLJUST
 70
     0
  9
$CMLSCALE
 40
1.0
  9
$PROXYGRAPHICS
 70
     1
  9
$MEASUREMENT
 70
     0
  9
$CELWEIGHT
370
    -1
  9
$ENDCAPS
280
     0
  9
$JOINSTYLE
280
     0
  9
$LWDISPLAY
290
     0
  9
$INSUNITS
 70
     0
  9
$HYPERLINKBASE
  1

  9
$STYLESHEET
  1

  9
$XEDIT
290
     1
  9
$CEPSNTYPE
380
     0
  9
$PSTYLEMODE
290
     1
  9
$FINGERPRINTGUID
  2
{D968AC44-8041-432B-B8E2-80244339861A}
  9
$VERSIONGUID
  2
{3AA367A6-9BC1-4801-AFCE-87AF9CAAB9B8}
  9
$EXTNAMES
290
     1
  9
$PSVPSCALE
 40
0.0
  9
$OLESTARTUP
290
     0
  0
ENDSEC
  0
SECTION
  2
CLASSES
  0
CLASS
  1
ACDBDICTIONARYWDFLT
  2
AcDbDictionaryWithDefault
  3
AutoCAD 2000
 90
        0
280
     0
281
     0
  0
CLASS
  1
ACDBPLACEHOLDER
  2
AcDbPlaceHolder
  3
AutoCAD 2000
 90
        0
280
     0
281
     0
  0
CLASS
  1
LAYOUT
  2
AcDbLayout
  3
AutoCAD 2000
 90
        0
280
     0
281
     0
  0
CLASS
  1
DICTIONARYVAR
  2
AcDbDictionaryVar
  3
AutoCAD 2000
 90
        0
280
     0
281
     0
  0
ENDSEC
  0
SECTION
  2
TABLES
  0
TABLE
  2
VPORT
  5
19
330
0
100
AcDbSymbolTable
 70
     2
  0
VPORT
  5
332
330
19
100
AcDbSymbolTableRecord
100
AcDbViewportTableRecord
  2
*Active
 70
     0
 10
0.0
 20
0.0
 11
1.0
 21
1.0
 12
165.2961461588451
 22
148.5014753536326
 13
0.0
 23
0.0
 14
1.0
 24
1.0
 15
0.0
 25
0.0
 16
0.0
 26
0.0
 36
1.0
 17
0.0
 27
0.0
 37
0.0
 40
301.021876378455
 41
2.407317073170731
 42
50.0
 43
0.0
 44
0.0
 50
0.0
 51
0.0
 71
     0
 72
   100
 73
     1
 74
     1
 75
     0
 76
     0
 77
     0
 78
     0
281
     0
 65
     1
110
0.0
120
0.0
130
0.0
111
1.0
121
0.0
131
0.0
112
0.0
122
1.0
132
0.0
 79
     0
146
0.0
  0
ENDTAB
  0
TABLE
  2
LTYPE
  5
14
330
0
100
AcDbSymbolTable
 70
     2
  0
LTYPE
  5
15
330
14
100
AcDbSymbolTableRecord
100
AcDbLinetypeTableRecord
  2
ByBlock
 70
     0
  3

 72
    65
 73
     0
 40
0.0
  0
LTYPE
  5
16
330
14
100
AcDbSymbolTableRecord
100
AcDbLinetypeTableRecord
  2
ByLayer
 70
     0
  3

 72
    65
 73
     0
 40
0.0
  0
LTYPE
  5
8
330
14
100
AcDbSymbolTableRecord
100
AcDbLinetypeTableRecord
  2
Continuous
 70
     0
  3
Solid line
 72
    65
 73
     0
 40
0.0
  0
LTYPE
  5
3F
330
14
100
AcDbSymbolTableRecord
100
AcDbLinetypeTableRecord
  2
CENTER
 70
     0
  3
Center
 72
    65
 73
     4
 40
9.100006759199999
 49
6.5000119209
 74
     0
 49
-0.7999984026000001
 74
     0
 49
0.9999980329999999
 74
     0
 49
-0.7999984026000001
 74
     0
  0
ENDTAB
  0
TABLE
  2
LAYER
  5
10
330
0
100
AcDbSymbolTable
 70
     1
  0
LAYER
  5
4
330
10
100
AcDbSymbolTableRecord
100
AcDbLayerTableRecord
  2
0
 70
     0
 62
     7
  6
Continuous
370
    -3
390
5
  0
ENDTAB
  0
TABLE
  2
STYLE
  5
11
330
0
100
AcDbSymbolTable
 70
     1
  0
STYLE
  5
12
330
11
100
AcDbSymbolTableRecord
100
AcDbTextStyleTableRecord
  2
STANDARD
 70
     0
 40
0.0
 41
1.0
 50
0.0
 71
     0
 42
2.999994039499997
  3
romans.shx
  4
bigfont.shx
  0
ENDTAB
  0
TABLE
  2
VIEW
  5
17
330
0
100
AcDbSymbolTable
 70
     0
  0
ENDTAB
  0
TABLE
  2
UCS
  5
18
330
0
100
AcDbSymbolTable
 70
     0
  0
ENDTAB
  0
TABLE
  2
APPID
  5
1B
330
0
100
AcDbSymbolTable
 70
     1
  0
APPID
  5
1C
330
1B
100
AcDbSymbolTableRecord
100
AcDbRegAppTableRecord
  2
ACAD
 70
     0
  0
ENDTAB
  0
TABLE
  2
DIMSTYLE
  5
1D
330
0
100
AcDbSymbolTable
 70
     1
100
AcDbDimStyleTable
 71
     0
  0
DIMSTYLE
105
23
330
1D
100
AcDbSymbolTableRecord
100
AcDbDimStyleTableRecord
  2
Standard
 70
     0
340
12
  0
ENDTAB
  0
TABLE
  2
BLOCK_RECORD
  5
1
330
0
100
AcDbSymbolTable
 70
     1
  0
BLOCK_RECORD
  5
2
330
1
100
AcDbSymbolTableRecord
100
AcDbBlockTableRecord
  2
*Model_Space
340
A
  0
BLOCK_RECORD
  5
C
330
1
100
AcDbSymbolTableRecord
100
AcDbBlockTableRecord
  2
*Paper_Space
340
F
  0
ENDTAB
  0
ENDSEC
  0
SECTION
  2
BLOCKS
  0
BLOCK
  5
3
330
2
100
AcDbEntity
  8
0
100
AcDbBlockBegin
  2
*Model_Space
 70
     0
 10
0.0
 20
0.0
 30
0.0
  3
*Model_Space
  1

  0
ENDBLK
  5
9
330
2
100
AcDbEntity
  8
0
100
AcDbBlockEnd
  0
BLOCK
  5
D
330
C
100
AcDbEntity
 67
     1
  8
0
100
AcDbBlockBegin
  2
*Paper_Space
 70
     0
 10
0.0
 20
0.0
 30
0.0
  3
*Paper_Space
  1

  0
ENDBLK
  5
E
330
C
100
AcDbEntity
 67
     1
  8
0
100
AcDbBlockEnd
  0
ENDSEC
  0
SECTION
  2
ENTITIES
  0
LINE
  5
24
330
2
100
AcDbEntity
  8
0
100
AcDbLine
 10
210.0
 20
0.0
 30
0.0
 11
210.0
 21
297.0
 31
0.0
  0
LINE
  5
25
330
2
100
AcDbEntity
  8
0
100
AcDbLine
 10
0.0
 20
297.0
 30
0.0
 11
0.0
 21
0.0
 31
0.0
  0
ARC
  5
26
330
2
100
AcDbEntity
  8
0
 62
     3
100
AcDbCircle
 10
151.1999464881999
 20
218.1977063054998
 30
0.0
 40
0.9999999404
100
AcDbArc
 50
89.99998201389999
 51
179.9999640277999
  0
ARC
  5
27
330
2
100
AcDbEntity
  8
0
 62
     3
100
AcDbCircle
 10
151.6999579322998
 20
218.6977177495999
 30
0.0
 40
1.499999761599999
100
AcDbArc
 50
89.99998201389999
 51
179.9999640277999
  0
ARC
  5
28
330
2
100
AcDbEntity
  8
0
 62
     3
100
AcDbCircle
 10
151.3999579323
 20
218.6980419987999
 30
0.0
 40
1.499999761599999
100
AcDbArc
 50
89.99998201389999
 51
179.9999640277999
  0
ARC
  5
29
330
2
100
AcDbEntity
  8
0
 62
     3
100
AcDbCircle
 10
151.6999579322998
 20
208.9477139348999
 30
0.0
 40
1.499999761599999
100
AcDbArc
 50
89.99998201389999
 51
179.9999640277999
  0
ARC
  5
2A
330
2
100
AcDbEntity
  8
0
 62
     3
100
AcDbCircle
 10
151.1999464881999
 20
213.1977063054999
 30
0.0
 40
0.9999999404
100
AcDbArc
 50
179.9999640277999
 51
269.9999460416999
  0
ARC
  5
2B
330
2
100
AcDbEntity
  8
0
 62
     3
100
AcDbCircle
 10
151.6999579322998
 20
212.6977139349
 30
0.0
 40
1.499999761599999
100
AcDbArc
 50
179.9999640277999
 51
270.0000006831999
  0
ARC
  5
2C
330
2
100
AcDbEntity
  8
0
 62
     3
100
AcDbCircle
 10
151.1999464881999
 20
208.4477024907999
 30
0.0
 40
0.9999999404
100
AcDbArc
 50
89.99998201389999
 51
179.9999640277999
  0
ARC
  5
2D
330
2
100
AcDbEntity
  8
0
 62
     3
100
AcDbCircle
 10
151.3999579323
 20
212.6980381841
 30
0.0
 40
1.499999761599999
100
AcDbArc
 50
179.9999640277999
 51
270.0000006831999
  0
ARC
  5
2E
330
2
100
AcDbEntity
  8
0
 62
     3
100
AcDbCircle
 10
151.3999579323
 20
208.9480381840999
 30
0.0
 40
1.499999761599999
100
AcDbArc
 50
89.99998201389999
 51
179.9999640277999
  0
ARC
  5
2F
330
2
100
AcDbEntity
  8
0
 62
     3
100
AcDbCircle
 10
151.6999579322998
 20
202.9477101202
 30
0.0
 40
1.499999761599999
100
AcDbArc
 50
179.9999640277999
 51
270.0000006831999
  0
ARC
  5
30
330
2
100
AcDbEntity
  8
0
 62
     3
100
AcDbCircle
 10
151.1999464881999
 20
203.4477024907999
 30
0.0
 40
0.9999999404
100
AcDbArc
 50
179.9999640277999
 51
269.9999460416999
  0
ARC
  5
31
330
2
100
AcDbEntity
  8
0
 62
     3
100
AcDbCircle
 10
151.3999579323
 20
202.9480343693999
 30
0.0
 40
1.499999761599999
100
AcDbArc
 50
179.9999640277999
 51
270.0000006831999
  0
ARC
  5
32
330
2
100
AcDbEntity
  8
0
 62
     3
100
AcDbCircle
 10
151.6999960791999
 20
186.6976910467
 30
0.0
 40
1.499999761599999
100
AcDbArc
 50
89.99998201389999
 51
179.9999640277999
  0
ARC
  5
33
330
2
100
AcDbEntity
  8
0
 62
     3
100
AcDbCircle
 10
151.1999464881999
 20
186.1977177495999
 30
0.0
 40
0.9999999404
100
AcDbArc
 50
89.99998201389999
 51
179.9999640277999
  0
ARC
  5
34
330
2
100
AcDbEntity
  8
0
 62
     3
100
AcDbCircle
 10
151.3999960791998
 20
186.6980152958999
 30
0.0
 40
1.499999761599999
100
AcDbArc
 50
89.99998201389999
 51
179.9999640277999
  0
ARC
  5
35
330
2
100
AcDbEntity
  8
0
 62
     3
100
AcDbCircle
 10
151.1999464881999
 20
176.4477330083
 30
0.0
 40
0.9999999404
100
AcDbArc
 50
89.99998201389999
 51
179.9999640277999
  0
ARC
  5
36
330
2
100
AcDbEntity
  8
0
 62
     3
100
AcDbCircle
 10
151.1999464881999
 20
171.4477330083
 30
0.0
 40
0.9999999404
100
AcDbArc
 50
179.9999640277999
 51
269.9999460416999
  0
ARC
  5
37
330
2
100
AcDbEntity
  8
0
 62
     3
100
AcDbCircle
 10
151.6999579322998
 20
170.9477406377
 30
0.0
 40
1.499999761599999
100
AcDbArc
 50
179.9999640277999
 51
270.0000006831999
  0
ARC
  5
38
330
2
100
AcDbEntity
  8
0
 62
     3
100
AcDbCircle
 10
151.6999960791999
 20
176.9477063054999
 30
0.0
 40
1.499999761599999
100
AcDbArc
 50
89.99998201389999
 51
179.9999640277999
  0
ARC
  5
39
330
2
100
AcDbEntity
  8
0
 62
     3
100
AcDbCircle
 10
151.3999960791998
 20
176.9480305546999
 30
0.0
 40
1.499999761599999
100
AcDbArc
 50
89.99998201389999
 51
179.9999640277999
  0
ARC
  5
3A
330
2
100
AcDbEntity
  8
0
 62
     3
100
AcDbCircle
 10
151.3999579323
 20
170.9480648869999
 30
0.0
 40
1.499999761599999
100
AcDbArc
 50
179.9999640277999
 51
270.0000006831999
  0
ARC
  5
3B
330
2
100
AcDbEntity
  8
0
 62
     3
100
AcDbCircle
 10
151.6999579322998
 20
180.6977253788999
 30
0.0
 40
1.499999761599999
100
AcDbArc
 50
179.9999640277999
 51
270.0000006831999
  0
ARC
  5
3C
330
2
100
AcDbEntity
  8
0
 62
     3
100
AcDbCircle
 10
151.1999464881999
 20
181.1977177495999
 30
0.0
 40
0.9999999404
100
AcDbArc
 50
179.9999640277999
 51
269.9999460416999
  0
ARC
  5
3D
330
2
100
AcDbEntity
  8
0
 62
     3
100
AcDbCircle
 10
151.3999579323
 20
180.6980496281999
 30
0.0
 40
1.499999761599999
100
AcDbArc
 50
179.9999640277999
 51
270.0000006831999
  0
LINE
  5
3E
330
2
100
AcDbEntity
  8
0
  6
CENTER
 62
     3
100
AcDbLine
 10
197.4076522616998
 20
194.8477345342
 30
0.0
 11
149.9073372018998
 21
194.8477345342
 31
0.0
  0
TEXT
  5
40
330
2
100
AcDbEntity
  8
0
 62
     5
100
AcDbText
 10
145.0
 20
10.0
 30
0.0
 40
5.0
  1
ＭＡ４－Ａ０３５３２Ｃ
 41
0.8443967743953095
 72
     5
 11
199.0413935612998
 21
10.0
 31
0.0
100
AcDbText
  0
LINE
  5
41
330
2
100
AcDbEntity
  8
0
100
AcDbLine
 10
0.0
 20
0.0
 30
0.0
 11
210.0
 21
0.0
 31
0.0
  0
LINE
  5
42
330
2
100
AcDbEntity
  8
0
 62
     3
100
AcDbLine
 10
89.59837330699997
 20
220.8480435246999
 30
0.0
 11
65.59860524059999
 21
220.8480435246999
 31
0.0
  0
LINE
  5
43
330
2
100
AcDbEntity
  8
0
 62
     3
100
AcDbLine
 10
65.59860524059999
 20
168.8474064703
 30
0.0
 11
89.59837330699997
 21
168.8474064703
 31
0.0
  0
LINE
  5
44
330
2
100
AcDbEntity
  8
0
  6
CENTER
 62
     3
100
AcDbLine
 10
31.00504619369999
 20
194.8477536076999
 30
0.0
 11
141.2569256969999
 21
194.8477536076999
 31
0.0
  0
LINE
  5
45
330
2
100
AcDbEntity
  8
0
 62
     3
100
AcDbLine
 10
57.19864186169999
 20
211.6478520269
 30
0.0
 11
59.39863499519998
 21
211.6478520269
 31
0.0
  0
LINE
  5
46
330
2
100
AcDbEntity
  8
0
 62
     3
100
AcDbLine
 10
55.93033131479998
 20
210.6478863591998
 30
0.0
 11
60.79862889169999
 21
210.6478863591998
 31
0.0
  0
LINE
  5
47
330
2
100
AcDbEntity
  8
0
 62
     3
100
AcDbLine
 10
60.79860981819999
 20
201.2478047246998
 30
0.0
 11
55.93033131479998
 21
201.2478047246998
 31
0.0
  0
LINE
  5
48
330
2
100
AcDbEntity
  8
0
 62
     3
100
AcDbLine
 10
57.95707997209999
 20
209.4478779668
 30
0.0
 11
65.59860524059999
 21
209.4478779668
 31
0.0
  0
LINE
  5
49
330
2
100
AcDbEntity
  8
0
 62
     3
100
AcDbLine
 10
65.59860524059999
 20
202.4478894108999
 30
0.0
 11
57.99864109879999
 21
202.4478894108999
 31
0.0
  0
LINE
  5
4A
330
2
100
AcDbEntity
  8
0
 62
     3
100
AcDbLine
 10
60.79860981819999
 20
169.2478543157
 30
0.0
 11
55.93033131479998
 21
169.2478543157
 31
0.0
  0
LINE
  5
4B
330
2
100
AcDbEntity
  8
0
 62
     3
100
AcDbLine
 10
55.93033131479998
 20
178.6479359502
 30
0.0
 11
60.79862889169999
 21
178.6479359502
 31
0.0
  0
LINE
  5
4C
330
2
100
AcDbEntity
  8
0
 62
     3
100
AcDbLine
 10
57.19864186169999
 20
179.6479016179999
 30
0.0
 11
59.39863499519998
 21
179.6479016179999
 31
0.0
  0
LINE
  5
4D
330
2
100
AcDbEntity
  8
0
 62
     3
100
AcDbLine
 10
65.59860524059999
 20
170.4479390019999
 30
0.0
 11
57.99864109879999
 21
170.4479390019999
 31
0.0
  0
LINE
  5
4E
330
2
100
AcDbEntity
  8
0
 62
     3
100
AcDbLine
 10
57.95707997209999
 20
177.4479275579
 30
0.0
 11
65.59860524059999
 21
177.4479275579
 31
0.0
  0
LINE
  5
4F
330
2
100
AcDbEntity
  8
0
 62
     3
100
AcDbLine
 10
53.59863575819997
 20
189.8479061955999
 30
0.0
 11
65.5986243141
 21
189.8479061955999
 31
0.0
  0
LINE
  5
50
330
2
100
AcDbEntity
  8
0
 62
     3
100
AcDbLine
 10
53.59863575819997
 20
199.8478680486
 30
0.0
 11
65.59860524059999
 21
199.8478680486
 31
0.0
  0
LINE
  5
51
330
2
100
AcDbEntity
  8
0
 62
     3
100
AcDbLine
 10
65.59860524059999
 20
220.8479167059
 30
0.0
 11
32.59864159299997
 21
220.8479692745999
 31
0.0
  0
LINE
  5
52
330
2
100
AcDbEntity
  8
0
 62
     3
100
AcDbLine
 10
32.59865412479996
 20
168.8479807186
 30
0.0
 11
65.59860524059999
 21
168.8479281498
 31
0.0
  0
LINE
  5
53
330
2
100
AcDbEntity
  8
0
 62
     3
100
AcDbLine
 10
57.19864186169999
 20
179.6479016179999
 30
0.0
 11
57.19864186169999
 21
201.2907009954
 31
0.0
  0
LINE
  5
54
330
2
100
AcDbEntity
  8
0
 62
     3
100
AcDbLine
 10
53.59863575819997
 20
202.3870259161
 30
0.0
 11
53.59863575819997
 21
177.5087255939999
 31
0.0
  0
LINE
  5
55
330
2
100
AcDbEntity
  8
0
 62
     3
100
AcDbLine
 10
32.59865101699998
 20
168.8478070135
 30
0.0
 11
32.59865101699998
 21
220.8477383488999
 31
0.0
  0
LINE
  5
56
330
2
100
AcDbEntity
  8
0
 62
     3
100
AcDbLine
 10
41.59862812879999
 20
212.1867161626
 30
0.0
 11
41.59862812879999
 21
187.3085003728
 31
0.0
  0
LINE
  5
57
330
2
100
AcDbEntity
  8
0
 62
     3
100
AcDbLine
 10
45.19863423229998
 20
188.4047871465
 30
0.0
 11
45.19863423229998
 21
210.0476055974999
 31
0.0
  0
LINE
  5
58
330
2
100
AcDbEntity
  8
0
 62
     3
100
AcDbLine
 10
43.25493473739999
 20
187.0969128846999
 30
0.0
 11
43.07864100869998
 21
187.2000042924999
 31
0.0
  0
ARC
  5
59
330
2
100
AcDbEntity
  8
0
 62
     3
100
AcDbCircle
 10
43.93028553849996
 20
187.4475460881999
 30
0.0
 40
1.000000014899999
100
AcDbArc
 50
89.99992737239997
 51
179.9999093863
  0
LINE
  5
5A
330
2
100
AcDbEntity
  8
0
 62
     3
100
AcDbLine
 10
42.27612631889999
 20
187.9385830792999
 30
0.0
 11
43.60645820729999
 21
188.3939147552999
 31
0.0
  0
LINE
  5
5B
330
2
100
AcDbEntity
  8
0
 62
     3
100
AcDbLine
 10
43.20691519089996
 20
180.364157384
 30
0.0
 11
43.37857409859998
 21
180.5080597673999
 31
0.0
  0
ARC
  5
5C
330
2
100
AcDbEntity
  8
0
 62
     3
100
AcDbCircle
 10
43.93028553849996
 20
180.0475674504999
 30
0.0
 40
1.000000014899999
100
AcDbArc
 50
180.0000359722
 51
270.0000179861
  0
LINE
  5
5D
330
2
100
AcDbEntity
  8
0
 62
     3
100
AcDbLine
 10
43.60652526139995
 20
179.1015087876999
 30
0.0
 11
42.27619337299995
 21
179.5568404636999
 31
0.0
  0
LINE
  5
5E
330
2
100
AcDbEntity
  8
0
 62
     3
100
AcDbLine
 10
53.59863575819997
 20
189.8476582403
 30
0.0
 11
41.59862812879999
 21
189.8476582403
 31
0.0
  0
LINE
  5
5F
330
2
100
AcDbEntity
  8
0
 62
     3
100
AcDbLine
 10
41.59862812879999
 20
180.1867657536999
 30
0.0
 11
41.59862812879999
 21
168.8476925726
 31
0.0
  0
LINE
  5
60
330
2
100
AcDbEntity
  8
0
 62
     3
100
AcDbLine
 10
39.89919957039996
 20
183.8477688664999
 30
0.0
 11
32.59863194350001
 21
183.8477688664999
 31
0.0
  0
ARC
  5
61
330
2
100
AcDbEntity
  8
0
 62
     3
100
AcDbCircle
 10
31.83855351329998
 20
196.5274601812
 30
0.0
 40
1.000000014899999
100
AcDbArc
 50
94.99995369390001
 51
163.7429116898998
  0
ARC
  5
62
330
2
100
AcDbEntity
  8
0
 62
     3
100
AcDbCircle
 10
31.83855351329998
 20
193.1681042546999
 30
0.0
 40
1.000000014899999
100
AcDbArc
 50
196.2569790270999
 51
271.1128470472
  0
ARC
  5
63
330
2
100
AcDbEntity
  8
0
 62
     3
100
AcDbCircle
 10
37.59865101699995
 20
194.8477726812
 30
0.0
 40
6.9999992847
100
AcDbArc
 50
163.7429116898998
 51
196.2569070826998
  0
LINE
  5
64
330
2
100
AcDbEntity
  8
0
 62
     3
100
AcDbLine
 10
31.09874293539997
 20
195.7137790946999
 30
0.0
 11
30.59874049159998
 21
194.8477507009
 31
0.0
  0
LINE
  5
65
330
2
100
AcDbEntity
  8
0
 62
     3
100
AcDbLine
 10
31.59867485729998
 20
193.1157699244
 30
0.0
 11
30.59868177139998
 21
194.8478115051999
 31
0.0
  0
LINE
  5
66
330
2
100
AcDbEntity
  8
0
 62
     3
100
AcDbLine
 10
32.09869517179999
 20
197.5977995318
 30
0.0
 11
32.09867991299995
 21
192.0978071612
 31
0.0
  0
LINE
  5
67
330
2
100
AcDbEntity
  8
0
 62
     3
100
AcDbLine
 10
32.59859379649998
 20
192.0976429815
 30
0.0
 11
32.59859379649998
 21
197.5976353521
 31
0.0
  0
LINE
  5
68
330
2
100
AcDbEntity
  8
0
 62
     3
100
AcDbLine
 10
32.09865864639997
 20
192.0977764959
 30
0.0
 11
32.59863194350001
 21
192.0977764959
 31
0.0
  0
LINE
  5
69
330
2
100
AcDbEntity
  8
0
 62
     3
100
AcDbLine
 10
31.75138697499997
 20
192.1718917714999
 30
0.0
 11
32.09868552089995
 21
192.1415068919
 31
0.0
  0
LINE
  5
6A
330
2
100
AcDbEntity
  8
0
 62
     3
100
AcDbLine
 10
32.59865101699998
 20
197.59778794
 30
0.0
 11
32.09867771989999
 21
197.59778794
 31
0.0
  0
LINE
  5
6B
330
2
100
AcDbEntity
  8
0
 62
     3
100
AcDbLine
 10
32.09871097960001
 20
197.5540436033
 30
0.0
 11
31.75143139299996
 21
197.5236608432999
 31
0.0
  0
LINE
  5
6C
330
2
100
AcDbEntity
  8
0
 62
     3
100
AcDbLine
 10
40.58249769969996
 20
186.7550543851999
 30
0.0
 11
40.43390813209998
 21
186.5001827016
 31
0.0
  0
LINE
  5
6D
330
2
100
AcDbEntity
  8
0
 62
     3
100
AcDbLine
 10
42.03929628359998
 20
180.777552952
 30
0.0
 11
42.17787775249997
 21
181.0239923704999
 31
0.0
  0
LINE
  5
6E
330
2
100
AcDbEntity
  8
0
 62
     3
100
AcDbLine
 10
40.44246279799998
 20
180.9782948042999
 30
0.0
 11
40.58308932529999
 21
180.7392075903999
 31
0.0
  0
LINE
  5
6F
330
2
100
AcDbEntity
  8
0
 62
     3
100
AcDbLine
 10
41.22828894069999
 20
180.2519886232999
 30
0.0
 11
41.39834369209999
 21
180.2564665657
 31
0.0
  0
ARC
  5
70
330
2
100
AcDbEntity
  8
0
 62
     3
100
AcDbCircle
 10
42.09423359749999
 20
183.3987217779
 30
0.0
 40
3.250031471299998
100
AcDbArc
 50
255.8300528924999
 51
288.4951867112
  0
ARC
  5
71
330
2
100
AcDbEntity
  8
0
 62
     3
100
AcDbCircle
 10
42.09419545059995
 20
183.3987217779
 30
0.0
 40
3.250031471299998
100
AcDbArc
 50
255.8300528924999
 51
288.4951867112
  0
LINE
  5
72
330
2
100
AcDbEntity
  8
0
 62
     3
100
AcDbLine
 10
40.58308932529999
 20
180.7392075903999
 30
0.0
 11
40.73427407609995
 21
180.5445123454999
 31
0.0
  0
LINE
  5
73
330
2
100
AcDbEntity
  8
0
 62
     3
100
AcDbLine
 10
41.05927174289996
 20
180.2990921317
 30
0.0
 11
41.22828894069999
 21
180.2519886232999
 31
0.0
  0
LINE
  5
74
330
2
100
AcDbEntity
  8
0
 62
     3
100
AcDbLine
 10
40.89378614399999
 20
180.3970820239999
 30
0.0
 11
41.05927174289996
 21
180.2990921317
 31
0.0
  0
LINE
  5
75
330
2
100
AcDbEntity
  8
0
 62
     3
100
AcDbLine
 10
40.73427407609995
 20
180.5445123454999
 30
0.0
 11
40.89378614399999
 21
180.3970820239999
 31
0.0
  0
LINE
  5
76
330
2
100
AcDbEntity
  8
0
 62
     3
100
AcDbLine
 10
41.88978501269997
 20
180.5749396719999
 30
0.0
 11
42.03929628359998
 21
180.777552952
 31
0.0
  0
LINE
  5
77
330
2
100
AcDbEntity
  8
0
 62
     3
100
AcDbLine
 10
42.9303198707
 20
180.047548377
 30
0.0
 11
42.9303198707
 21
180.2580242986
 31
0.0
  0
LINE
  5
78
330
2
100
AcDbEntity
  8
0
 62
     3
100
AcDbLine
 10
43.0292634331
 20
180.276841362
 30
0.0
 11
43.20691519089996
 21
180.364157384
 31
0.0
  0
LINE
  5
79
330
2
100
AcDbEntity
  8
0
 62
     3
100
AcDbLine
 10
42.27618229799998
 20
179.5569825093999
 30
0.0
 11
42.24798236769998
 21
180.1525333334
 31
0.0
  0
LINE
  5
7A
330
2
100
AcDbEntity
  8
0
 62
     3
100
AcDbLine
 10
41.39834369209999
 20
180.2564665657
 30
0.0
 11
41.56692664170001
 21
180.3124598818
 31
0.0
  0
LINE
  5
7B
330
2
100
AcDbEntity
  8
0
 62
     3
100
AcDbLine
 10
41.56692664170001
 20
180.3124598818
 30
0.0
 11
41.73155015229997
 21
180.4191423249999
 31
0.0
  0
LINE
  5
7C
330
2
100
AcDbEntity
  8
0
 62
     3
100
AcDbLine
 10
42.84858998179998
 20
180.2475720280999
 30
0.0
 11
43.0292634331
 21
180.276841362
 31
0.0
  0
LINE
  5
7D
330
2
100
AcDbEntity
  8
0
 62
     3
100
AcDbLine
 10
41.73155015229997
 20
180.4191423249999
 30
0.0
 11
41.88978501269997
 21
180.5749396719999
 31
0.0
  0
LINE
  5
7E
330
2
100
AcDbEntity
  8
0
 62
     3
100
AcDbLine
 10
41.24090489269997
 20
184.2475872869
 30
0.0
 11
41.75976094129999
 21
184.2475872869
 31
0.0
  0
LINE
  5
7F
330
2
100
AcDbEntity
  8
0
 62
     3
100
AcDbLine
 10
41.06771763679995
 20
183.7475949162999
 30
0.0
 11
41.47108372569999
 21
183.7475949162999
 31
0.0
  0
LINE
  5
80
330
2
100
AcDbEntity
  8
0
 62
     3
100
AcDbLine
 10
41.24090489269997
 20
183.2475834721999
 30
0.0
 11
41.75978001479998
 21
183.2475834721999
 31
0.0
  0
LINE
  5
81
330
2
100
AcDbEntity
  8
0
 62
     3
100
AcDbLine
 10
42.18127309989998
 20
185.8764752715999
 30
0.0
 11
41.2409312625
 21
184.2477551558
 31
0.0
  0
LINE
  5
82
330
2
100
AcDbEntity
  8
0
 62
     3
100
AcDbLine
 10
41.24083779709997
 20
183.2477351144
 30
0.0
 11
42.11515676939995
 21
181.7333699747999
 31
0.0
  0
LINE
  5
83
330
2
100
AcDbEntity
  8
0
 62
     3
100
AcDbLine
 10
40.55938665179996
 20
185.3267098257999
 30
0.0
 11
41.47101335889999
 21
183.7477257829
 31
0.0
  0
LINE
  5
84
330
2
100
AcDbEntity
  8
0
 62
     3
100
AcDbLine
 10
41.47109728759994
 20
183.7477479692
 30
0.0
 11
40.48144095719999
 21
182.0336126313999
 31
0.0
  0
ARC
  5
85
330
2
100
AcDbEntity
  8
0
 62
     3
100
AcDbCircle
 10
40.77795323259997
 20
181.4457684393
 30
0.0
 40
0.4999999702000001
100
AcDbArc
 50
149.9998607402
 51
202.0347553469
  0
LINE
  5
86
330
2
100
AcDbEntity
  8
0
 62
     3
100
AcDbLine
 10
40.0780325783
 20
182.0334225529999
 30
0.0
 11
40.53991612319999
 21
182.0334225529999
 31
0.0
  0
LINE
  5
87
330
2
100
AcDbEntity
  8
0
 62
     3
100
AcDbLine
 10
40.42874397829999
 20
184.8544568702999
 30
0.0
 11
40.57848663269999
 21
185.3951116828
 31
0.0
  0
LINE
  5
88
330
2
100
AcDbEntity
  8
0
 62
     3
100
AcDbLine
 10
40.31446960219997
 20
181.2582459774
 30
0.0
 11
40.44246279799998
 21
180.9782948042999
 31
0.0
  0
LINE
  5
89
330
2
100
AcDbEntity
  8
0
 62
     3
100
AcDbLine
 10
40.29964446219998
 20
186.1997069524999
 30
0.0
 11
40.18193111569996
 21
185.8586052975
 31
0.0
  0
LINE
  5
8A
330
2
100
AcDbEntity
  8
0
 62
     3
100
AcDbLine
 10
40.18193111569996
 20
185.8586052975
 30
0.0
 11
40.0827183191
 21
185.4825289692
 31
0.0
  0
LINE
  5
8B
330
2
100
AcDbEntity
  8
0
 62
     3
100
AcDbLine
 10
40.0827183191
 20
185.4825289692
 30
0.0
 11
40.00364978939995
 21
185.0777086466999
 31
0.0
  0
LINE
  5
8C
330
2
100
AcDbEntity
  8
0
 62
     3
100
AcDbLine
 10
40.00364978939995
 20
185.0777086466999
 30
0.0
 11
39.94603550189998
 21
184.6508512275
 31
0.0
  0
LINE
  5
8D
330
2
100
AcDbEntity
  8
0
 62
     3
100
AcDbLine
 10
39.94603550189998
 20
184.6508512275
 30
0.0
 11
39.91082998649995
 21
184.2090287109
 31
0.0
  0
LINE
  5
8E
330
2
100
AcDbEntity
  8
0
 62
     3
100
AcDbLine
 10
39.91082998649995
 20
184.2090287109
 30
0.0
 11
39.89861651369997
 21
183.7595610318
 31
0.0
  0
LINE
  5
8F
330
2
100
AcDbEntity
  8
0
 62
     3
100
AcDbLine
 10
39.89861651369997
 20
183.7595610318
 30
0.0
 11
39.90959743129997
 21
183.309894787
 31
0.0
  0
LINE
  5
90
330
2
100
AcDbEntity
  8
0
 62
     3
100
AcDbLine
 10
39.90959743129997
 20
183.309894787
 30
0.0
 11
39.94359081209998
 21
182.8674798629999
 31
0.0
  0
LINE
  5
91
330
2
100
AcDbEntity
  8
0
 62
     3
100
AcDbLine
 10
39.94359081209998
 20
182.8674798629999
 30
0.0
 11
40.00003346759996
 21
182.4396460095
 31
0.0
  0
LINE
  5
92
330
2
100
AcDbEntity
  8
0
 62
     3
100
AcDbLine
 10
40.00003346759996
 20
182.4396460095
 30
0.0
 11
40.07799027889999
 21
182.0334814029
 31
0.0
  0
LINE
  5
93
330
2
100
AcDbEntity
  8
0
 62
     3
100
AcDbLine
 10
40.57834882039998
 20
185.3951847539
 30
0.0
 11
41.24083767879997
 21
184.2477201964999
 31
0.0
  0
LINE
  5
94
330
2
100
AcDbEntity
  8
0
 62
     3
100
AcDbLine
 10
40.42860694339998
 20
184.8545269176999
 30
0.0
 11
41.06761634289997
 21
183.7477299829
 31
0.0
  0
LINE
  5
95
330
2
100
AcDbEntity
  8
0
 62
     3
100
AcDbLine
 10
41.06770027159996
 20
183.7477437691999
 30
0.0
 11
40.07805347789997
 21
182.0336249495
 31
0.0
  0
LINE
  5
96
330
2
100
AcDbEntity
  8
0
 62
     3
100
AcDbLine
 10
41.24095719899997
 20
183.2477770550999
 30
0.0
 11
40.34501843259997
 21
181.6959653270999
 31
0.0
  0
LINE
  5
97
330
2
100
AcDbEntity
  8
0
 62
     3
100
AcDbLine
 10
40.43390813209998
 20
186.5001827016
 30
0.0
 11
40.29964446219998
 21
186.1997069524999
 31
0.0
  0
ARC
  5
98
330
2
100
AcDbEntity
  8
0
 62
     3
100
AcDbCircle
 10
42.83895787119999
 20
184.8155194158
 30
0.0
 40
0.4999999702000001
100
AcDbArc
 50
89.99987273089997
 51
149.9998607402
  0
ARC
  5
99
330
2
100
AcDbEntity
  8
0
 62
     3
100
AcDbCircle
 10
42.61425312879999
 20
185.6263333195999
 30
0.0
 40
0.4999999702000001
100
AcDbArc
 50
89.99998201389999
 51
149.9999153816999
  0
LINE
  5
9A
330
2
100
AcDbEntity
  8
0
 62
     3
100
AcDbLine
 10
41.75968100329998
 20
183.2477386712
 30
0.0
 11
42.283457949
 21
182.3405302352999
 31
0.0
  0
LINE
  5
9B
330
2
100
AcDbEntity
  8
0
 62
     3
100
AcDbLine
 10
42.8444548967
 20
186.1264735296999
 30
0.0
 11
41.75977446869999
 21
184.2477515989999
 31
0.0
  0
LINE
  5
9C
330
2
100
AcDbEntity
  8
0
 62
     3
100
AcDbLine
 10
42.61427220229998
 20
186.1263256902
 30
0.0
 11
42.84443196179998
 21
186.1263256902
 31
0.0
  0
LINE
  5
9D
330
2
100
AcDbEntity
  8
0
 62
     3
100
AcDbLine
 10
42.11534542809999
 20
181.7332930752
 30
0.0
 11
42.34006035389995
 21
182.5440395135
 31
0.0
  0
LINE
  5
9E
330
2
100
AcDbEntity
  8
0
 62
     3
100
AcDbLine
 10
42.40597906979997
 20
185.0656880125999
 30
0.0
 11
41.64506149689998
 21
183.7477398917999
 31
0.0
  0
LINE
  5
9F
330
2
100
AcDbEntity
  8
0
 62
     3
100
AcDbLine
 10
41.64497756829999
 20
183.7477338603
 30
0.0
 11
42.33988181289999
 21
182.5441241975999
 31
0.0
  0
LINE
  5
A0
330
2
100
AcDbEntity
  8
0
 62
     3
100
AcDbLine
 10
43.06910360459997
 20
185.3157146395999
 30
0.0
 11
42.84439937269996
 21
186.1265233909
 31
0.0
  0
LINE
  5
A1
330
2
100
AcDbEntity
  8
0
 62
     3
100
AcDbLine
 10
42.83897694469999
 20
185.3155117863999
 30
0.0
 11
43.06913670419999
 21
185.3155117863999
 31
0.0
  0
LINE
  5
A2
330
2
100
AcDbEntity
  8
0
 62
     3
100
AcDbLine
 10
41.44823421219999
 20
187.2275322191999
 30
0.0
 11
41.26819790259998
 21
187.2467539694
 31
0.0
  0
ARC
  5
A3
330
2
100
AcDbEntity
  8
0
 62
     3
100
AcDbCircle
 10
42.09423359749999
 20
184.0964299078
 30
0.0
 40
3.250024318699998
100
AcDbArc
 50
71.50607004359999
 51
110.5385247727
  0
ARC
  5
A4
330
2
100
AcDbEntity
  8
0
 62
     3
100
AcDbCircle
 10
42.09419545059995
 20
184.0964299078
 30
0.0
 40
3.250024318699998
100
AcDbArc
 50
71.50607004359999
 51
110.5385247727
  0
LINE
  5
A5
330
2
100
AcDbEntity
  8
0
 62
     3
100
AcDbLine
 10
41.26819790259998
 20
187.2467539694
 30
0.0
 11
41.08866531869998
 21
187.2080027665
 31
0.0
  0
LINE
  5
A6
330
2
100
AcDbEntity
  8
0
 62
     3
100
AcDbLine
 10
40.91261088319996
 20
187.1119206246999
 30
0.0
 11
40.74295139379995
 21
186.9600993935
 31
0.0
  0
LINE
  5
A7
330
2
100
AcDbEntity
  8
0
 62
     3
100
AcDbLine
 10
40.74295139379995
 20
186.9600993935
 30
0.0
 11
40.58249769969996
 21
186.7550543851999
 31
0.0
  0
LINE
  5
A8
330
2
100
AcDbEntity
  8
0
 62
     3
100
AcDbLine
 10
41.08866531869998
 20
187.2080027665
 30
0.0
 11
40.91261088319996
 21
187.1119206246999
 31
0.0
  0
LINE
  5
A9
330
2
100
AcDbEntity
  8
0
 62
     3
100
AcDbLine
 10
42.9303198707
 20
187.2370320195999
 30
0.0
 11
42.9303198707
 21
187.4475079411999
 31
0.0
  0
LINE
  5
AA
330
2
100
AcDbEntity
  8
0
 62
     3
100
AcDbLine
 10
43.07864100869998
 20
187.2000042924999
 30
0.0
 11
42.89849976579995
 21
187.2453551733999
 31
0.0
  0
LINE
  5
AB
330
2
100
AcDbEntity
  8
0
 62
     3
100
AcDbLine
 10
42.24801980629999
 20
187.3429619865
 30
0.0
 11
42.27621883449995
 21
187.9384937582999
 31
0.0
  0
LINE
  5
AC
330
2
100
AcDbEntity
  8
0
 62
     3
100
AcDbLine
 10
42.11466835799996
 20
186.5914707079
 30
0.0
 11
41.96179191139998
 21
186.8299687107
 31
0.0
  0
LINE
  5
AD
330
2
100
AcDbEntity
  8
0
 62
     3
100
AcDbLine
 10
41.96179191139998
 20
186.8299687107
 30
0.0
 11
41.79792800849997
 21
187.0173988882999
 31
0.0
  0
LINE
  5
AE
330
2
100
AcDbEntity
  8
0
 62
     3
100
AcDbLine
 10
41.79792800849997
 20
187.0173988882999
 30
0.0
 11
41.62579147959997
 21
187.1506559742
 31
0.0
  0
LINE
  5
AF
330
2
100
AcDbEntity
  8
0
 62
     3
100
AcDbLine
 10
41.62579147959997
 20
187.1506559742
 30
0.0
 11
41.44823421219999
 21
187.2275322191999
 31
0.0
  0
LINE
  5
B0
330
2
100
AcDbEntity
  8
0
 62
     3
100
AcDbLine
 10
56.1953736941
 20
174.9038394438999
 30
0.0
 11
56.13476153789997
 21
175.3303542385999
 31
0.0
  0
LINE
  5
B1
330
2
100
AcDbEntity
  8
0
 62
     3
100
AcDbLine
 10
57.99864109879999
 20
170.4478245610999
 30
0.0
 11
57.99864109879999
 21
177.4847393865
 31
0.0
  0
LINE
  5
B2
330
2
100
AcDbEntity
  8
0
 62
     3
100
AcDbLine
 10
56.2986403358
 20
171.9478016729
 30
0.0
 11
56.2986403358
 21
175.9477406377
 31
0.0
  0
LINE
  5
B3
330
2
100
AcDbEntity
  8
0
 62
     3
100
AcDbLine
 10
57.45710667489999
 20
175.6348782414999
 30
0.0
 11
57.45710667489999
 21
172.2610646122999
 31
0.0
  0
LINE
  5
B4
330
2
100
AcDbEntity
  8
0
 62
     3
100
AcDbLine
 10
52.00002202349998
 20
175.2557648728999
 30
0.0
 11
51.94357936799997
 21
174.8279318007
 31
0.0
  0
LINE
  5
B5
330
2
100
AcDbEntity
  8
0
 62
     3
100
AcDbLine
 10
54.28352144849998
 20
175.3550959671999
 30
0.0
 11
53.75975430039995
 21
174.447904501
 31
0.0
  0
LINE
  5
B6
330
2
100
AcDbEntity
  8
0
 62
     3
100
AcDbLine
 10
52.48138572309997
 20
175.6619820986999
 30
0.0
 11
53.47103251670001
 21
173.947863279
 31
0.0
  0
LINE
  5
B7
330
2
100
AcDbEntity
  8
0
 62
     3
100
AcDbLine
 10
54.33995481189999
 20
175.1515184584999
 30
0.0
 11
53.64506040209997
 21
173.9479258301
 31
0.0
  0
LINE
  5
B8
330
2
100
AcDbEntity
  8
0
 62
     3
100
AcDbLine
 10
54.11524628659998
 20
175.9622631445999
 30
0.0
 11
53.24093714909998
 21
174.4479150391999
 31
0.0
  0
LINE
  5
B9
330
2
100
AcDbEntity
  8
0
 62
     3
100
AcDbLine
 10
52.07801476199998
 20
175.6619793172999
 30
0.0
 11
53.06766155559998
 21
173.9478604976
 31
0.0
  0
LINE
  5
BA
330
2
100
AcDbEntity
  8
0
 62
     3
100
AcDbLine
 10
52.3449536617
 20
175.999645921
 30
0.0
 11
53.2408924282
 21
174.4478341930999
 31
0.0
  0
LINE
  5
BB
330
2
100
AcDbEntity
  8
0
 62
     3
100
AcDbLine
 10
50.0986545058
 20
180.247722592
 30
0.0
 11
48.19865353459997
 21
174.6477230874999
 31
0.0
  0
LINE
  5
BC
330
2
100
AcDbEntity
  8
0
 62
     3
100
AcDbLine
 10
48.19862660289999
 20
179.0476399296999
 30
0.0
 11
48.19862660289999
 21
174.6476536626
 31
0.0
  0
LINE
  5
BD
330
2
100
AcDbEntity
  8
0
 62
     3
100
AcDbLine
 10
45.19863423229998
 20
168.8476734990999
 30
0.0
 11
45.19863423229998
 21
178.0476361149999
 31
0.0
  0
LINE
  5
BE
330
2
100
AcDbEntity
  8
0
 62
     3
100
AcDbLine
 10
48.19862660289999
 20
174.6476727361
 30
0.0
 11
51.92692097550002
 21
174.6476727361
 31
0.0
  0
ARC
  5
BF
330
2
100
AcDbEntity
  8
0
 62
     3
100
AcDbCircle
 10
55.93029316789998
 20
170.2478772038999
 30
0.0
 40
1.000000014899999
100
AcDbArc
 50
180.0000906136999
 51
270.0000726275999
  0
LINE
  5
C0
330
2
100
AcDbEntity
  8
0
 62
     3
100
AcDbLine
 10
54.84443959119997
 20
171.5690785283999
 30
0.0
 11
54.6142798317
 21
171.5690785283999
 31
0.0
  0
ARC
  5
C1
330
2
100
AcDbEntity
  8
0
 62
     3
100
AcDbCircle
 10
54.09422215339998
 20
173.5989933843
 30
0.0
 40
3.250024318699998
100
AcDbArc
 50
249.4614752273
 51
288.4939299563999
  0
ARC
  5
C2
330
2
100
AcDbEntity
  8
0
 62
     3
100
AcDbCircle
 10
54.83894642709998
 20
172.8799038763
 30
0.0
 40
0.4999999702000001
100
AcDbArc
 50
210.0001392597999
 51
270.0001272691
  0
ARC
  5
C3
330
2
100
AcDbEntity
  8
0
 62
     3
100
AcDbCircle
 10
54.09420308
 20
173.5989933843
 30
0.0
 40
3.250024318699998
100
AcDbArc
 50
249.4614752273
 51
288.4939299563999
  0
LINE
  5
C4
330
2
100
AcDbEntity
  8
0
 62
     3
100
AcDbLine
 10
55.60644854739996
 20
169.3017505802999
 30
0.0
 11
54.27611665899999
 21
169.7570822563
 31
0.0
  0
LINE
  5
C5
330
2
100
AcDbEntity
  8
0
 62
     3
100
AcDbLine
 10
53.75971923459997
 20
173.4478431310999
 30
0.0
 11
54.84439966259998
 21
171.5691212003
 31
0.0
  0
LINE
  5
C6
330
2
100
AcDbEntity
  8
0
 62
     3
100
AcDbLine
 10
53.59863575819997
 20
170.3869735989
 30
0.0
 11
53.59863575819997
 21
168.8479472656999
 31
0.0
  0
LINE
  5
C7
330
2
100
AcDbEntity
  8
0
 62
     3
100
AcDbLine
 10
53.47109619269997
 20
173.9479339074999
 30
0.0
 11
52.55945994889998
 21
172.3689333465
 31
0.0
  0
LINE
  5
C8
330
2
100
AcDbEntity
  8
0
 62
     3
100
AcDbLine
 10
53.24091097589996
 20
173.4479229758
 30
0.0
 11
52.57842211749999
 21
172.3004584183999
 31
0.0
  0
LINE
  5
C9
330
2
100
AcDbEntity
  8
0
 62
     3
100
AcDbLine
 10
52.74293994969998
 20
170.7353288668999
 30
0.0
 11
52.91259943909998
 21
170.5835092052
 31
0.0
  0
LINE
  5
CA
330
2
100
AcDbEntity
  8
0
 62
     3
100
AcDbLine
 10
53.06770615809995
 20
173.9479036526
 30
0.0
 11
52.42870629529995
 21
172.8411232358999
 31
0.0
  0
LINE
  5
CB
330
2
100
AcDbEntity
  8
0
 62
     3
100
AcDbLine
 10
52.58248625559994
 20
170.9403722234999
 30
0.0
 11
52.74293994969998
 21
170.7353288668999
 31
0.0
  0
LINE
  5
CC
330
2
100
AcDbEntity
  8
0
 62
     3
100
AcDbLine
 10
51.90958598729998
 20
174.3855178507
 30
0.0
 11
51.89860506959997
 21
173.9358527563
 31
0.0
  0
LINE
  5
CD
330
2
100
AcDbEntity
  8
0
 62
     3
100
AcDbLine
 10
51.89860506959997
 20
173.9358527563
 30
0.0
 11
51.9108185424
 21
173.4863863850999
 31
0.0
  0
LINE
  5
CE
330
2
100
AcDbEntity
  8
0
 62
     3
100
AcDbLine
 10
51.9108185424
 20
173.4863863850999
 30
0.0
 11
51.94602405779995
 21
173.0445653122
 31
0.0
  0
LINE
  5
CF
330
2
100
AcDbEntity
  8
0
 62
     3
100
AcDbLine
 10
51.94602405779995
 20
173.0445653122
 30
0.0
 11
52.00363834539999
 21
172.6177094485
 31
0.0
  0
LINE
  5
D0
330
2
100
AcDbEntity
  8
0
 62
     3
100
AcDbLine
 10
52.00363834539999
 20
172.6177094485
 30
0.0
 11
52.08270687499998
 21
172.2128907676
 31
0.0
  0
LINE
  5
D1
330
2
100
AcDbEntity
  8
0
 62
     3
100
AcDbLine
 10
52.08270687499998
 20
172.2128907676
 30
0.0
 11
52.18191967159999
 21
171.8368161399999
 31
0.0
  0
LINE
  5
D2
330
2
100
AcDbEntity
  8
0
 62
     3
100
AcDbLine
 10
52.18191967159999
 20
171.8368161399999
 30
0.0
 11
52.29963301809999
 21
171.4957162161999
 31
0.0
  0
LINE
  5
D3
330
2
100
AcDbEntity
  8
0
 62
     3
100
AcDbLine
 10
52.29963301809999
 20
171.4957162161999
 30
0.0
 11
52.43389668799998
 21
171.1952422004999
 31
0.0
  0
LINE
  5
D4
330
2
100
AcDbEntity
  8
0
 62
     3
100
AcDbLine
 10
52.57841664339998
 20
172.3004905134
 30
0.0
 11
52.42867398889996
 21
172.8411453257999
 31
0.0
  0
LINE
  5
D5
330
2
100
AcDbEntity
  8
0
 62
     3
100
AcDbLine
 10
52.43389668799998
 20
171.1952422004999
 30
0.0
 11
52.58248625559994
 21
170.9403722234999
 31
0.0
  0
LINE
  5
D6
330
2
100
AcDbEntity
  8
0
 62
     3
100
AcDbLine
 10
51.94357936799997
 20
174.8279318007
 30
0.0
 11
51.90958598729998
 21
174.3855178507
 31
0.0
  0
LINE
  5
D7
330
2
100
AcDbEntity
  8
0
 62
     3
100
AcDbLine
 10
54.27612852919998
 20
169.7571353148999
 30
0.0
 11
54.24792859889999
 21
170.3526861389
 31
0.0
  0
LINE
  5
D8
330
2
100
AcDbEntity
  8
0
 62
     3
100
AcDbLine
 10
53.75976857069997
 20
173.4478169317
 30
0.0
 11
53.24091252209999
 21
173.4478169317
 31
0.0
  0
LINE
  5
D9
330
2
100
AcDbEntity
  8
0
 62
     3
100
AcDbLine
 10
53.47109135509999
 20
173.9478283757999
 30
0.0
 11
53.06772526619997
 21
173.9478283757999
 31
0.0
  0
LINE
  5
DA
330
2
100
AcDbEntity
  8
0
 62
     3
100
AcDbLine
 10
53.7597876442
 20
174.4478016728999
 30
0.0
 11
53.24091252209999
 21
174.4478016728999
 31
0.0
  0
LINE
  5
DB
330
2
100
AcDbEntity
  8
0
 62
     3
100
AcDbLine
 10
53.64498974469999
 20
173.9478453014999
 30
0.0
 11
54.40589778089997
 21
172.6299136988999
 31
0.0
  0
LINE
  5
DC
330
2
100
AcDbEntity
  8
0
 62
     3
100
AcDbLine
 10
53.24087602839998
 20
173.4478395742
 30
0.0
 11
54.18121786579996
 21
171.8191194584
 31
0.0
  0
LINE
  5
DD
330
2
100
AcDbEntity
  8
0
 62
     3
100
AcDbLine
 10
52.91259943909998
 20
170.5835092052
 30
0.0
 11
53.08865387459997
 21
170.4874285244
 31
0.0
  0
LINE
  5
DE
330
2
100
AcDbEntity
  8
0
 62
     3
100
AcDbLine
 10
53.08865387459997
 20
170.4874285244
 30
0.0
 11
53.26818645849996
 21
170.4486786501
 31
0.0
  0
LINE
  5
DF
330
2
100
AcDbEntity
  8
0
 62
     3
100
AcDbLine
 10
53.26818645849996
 20
170.4486786501
 30
0.0
 11
53.44822276809998
 21
170.4679015742
 31
0.0
  0
LINE
  5
E0
330
2
100
AcDbEntity
  8
0
 62
     3
100
AcDbLine
 10
53.44822276809998
 20
170.4679015742
 30
0.0
 11
53.62578003549998
 21
170.5447788194
 31
0.0
  0
LINE
  5
E1
330
2
100
AcDbEntity
  8
0
 62
     3
100
AcDbLine
 10
53.62578003549998
 20
170.5447788194
 30
0.0
 11
53.79791656439997
 21
170.6780367147
 31
0.0
  0
LINE
  5
E2
330
2
100
AcDbEntity
  8
0
 62
     3
100
AcDbLine
 10
53.79791656439997
 20
170.6780367147
 30
0.0
 11
53.96178046729994
 21
170.8654674978999
 31
0.0
  0
LINE
  5
E3
330
2
100
AcDbEntity
  8
0
 62
     3
100
AcDbLine
 10
53.96178046729994
 20
170.8654674978999
 30
0.0
 11
54.11465691389998
 21
171.1039658922
 31
0.0
  0
ARC
  5
E4
330
2
100
AcDbEntity
  8
0
 62
     3
100
AcDbCircle
 10
54.61424168469998
 20
172.0691090458999
 30
0.0
 40
0.4999999702000001
100
AcDbArc
 50
210.0000846183
 51
270.0000179861
  0
ARC
  5
E5
330
2
100
AcDbEntity
  8
0
 62
     3
100
AcDbCircle
 10
57.79394444349998
 20
170.0941639775999
 30
0.0
 40
1.000000014899999
100
AcDbArc
 50
211.4069396627999
 51
237.8096642769
  0
LINE
  5
E6
330
2
100
AcDbEntity
  8
0
 62
     3
100
AcDbLine
 10
56.29859741959998
 20
171.9479666273999
 30
0.0
 11
57.02832799930002
 21
169.2479620655
 31
0.0
  0
LINE
  5
E7
330
2
100
AcDbEntity
  8
0
 62
     3
100
AcDbLine
 10
54.93032750009996
 20
170.2478199834
 30
0.0
 11
54.93032750009996
 21
170.4583340519999
 31
0.0
  0
LINE
  5
E8
330
2
100
AcDbEntity
  8
0
 62
     3
100
AcDbLine
 10
54.84436450599997
 20
171.5691185787999
 30
0.0
 11
55.06906873779996
 21
172.3799273301
 31
0.0
  0
LINE
  5
E9
330
2
100
AcDbEntity
  8
0
 62
     3
100
AcDbLine
 10
55.06914433359998
 20
172.3798924321999
 30
0.0
 11
54.83898457409998
 21
172.3798924321999
 31
0.0
  0
LINE
  5
EA
330
2
100
AcDbEntity
  8
0
 62
     3
100
AcDbLine
 10
54.89850807519997
 20
170.4500779892999
 30
0.0
 11
55.07865177229999
 21
170.4954299738
 31
0.0
  0
LINE
  5
EB
330
2
100
AcDbEntity
  8
0
 62
     3
100
AcDbLine
 10
55.07865177229999
 20
170.4954299738
 30
0.0
 11
55.25494790279998
 21
170.5985223015999
 31
0.0
  0
LINE
  5
EC
330
2
100
AcDbEntity
  8
0
 62
     3
100
AcDbLine
 10
55.25494790279998
 20
170.5985223015999
 30
0.0
 11
55.4244479823
 21
170.7576307933999
 31
0.0
  0
LINE
  5
ED
330
2
100
AcDbEntity
  8
0
 62
     3
100
AcDbLine
 10
55.4244479823
 20
170.7576307933999
 30
0.0
 11
55.58431718759996
 21
170.9700944215
 31
0.0
  0
LINE
  5
EE
330
2
100
AcDbEntity
  8
0
 62
     3
100
AcDbLine
 10
55.58431718759996
 20
170.9700944215
 30
0.0
 11
55.73188176839997
 21
171.2323598140999
 31
0.0
  0
LINE
  5
EF
330
2
100
AcDbEntity
  8
0
 62
     3
100
AcDbLine
 10
55.73188176839997
 20
171.2323598140999
 30
0.0
 11
55.86467376429997
 21
171.5400406840999
 31
0.0
  0
LINE
  5
F0
330
2
100
AcDbEntity
  8
0
 62
     3
100
AcDbLine
 10
55.86467376429997
 20
171.5400406840999
 30
0.0
 11
55.98047228049998
 21
171.8879911884
 31
0.0
  0
LINE
  5
F1
330
2
100
AcDbEntity
  8
0
 62
     3
100
AcDbLine
 10
55.98047228049998
 20
171.8879911884
 30
0.0
 11
56.07734063199998
 21
172.2703919897
 31
0.0
  0
LINE
  5
F2
330
2
100
AcDbEntity
  8
0
 62
     3
100
AcDbLine
 10
56.07734063199998
 20
172.2703919897
 30
0.0
 11
56.15365873299999
 21
172.6808475829999
 31
0.0
  0
LINE
  5
F3
330
2
100
AcDbEntity
  8
0
 62
     3
100
AcDbLine
 10
56.15365873299999
 20
172.6808475829999
 30
0.0
 11
56.20815019279999
 21
173.1124932577
 31
0.0
  0
LINE
  5
F4
330
2
100
AcDbEntity
  8
0
 62
     3
100
AcDbLine
 10
56.20815019279999
 20
173.1124932577
 30
0.0
 11
56.2399036631
 21
173.5581099072
 31
0.0
  0
LINE
  5
F5
330
2
100
AcDbEntity
  8
0
 62
     3
100
AcDbLine
 10
56.2399036631
 20
173.5581099072
 30
0.0
 11
56.24838807929996
 21
174.0102447659999
 31
0.0
  0
LINE
  5
F6
330
2
100
AcDbEntity
  8
0
 62
     3
100
AcDbLine
 10
56.24838807929996
 20
174.0102447659999
 30
0.0
 11
56.23346154279997
 21
174.4613360537999
 31
0.0
  0
LINE
  5
F7
330
2
100
AcDbEntity
  8
0
 62
     3
100
AcDbLine
 10
56.23346154279997
 20
174.4613360537999
 30
0.0
 11
56.1953736941
 21
174.9038394438999
 31
0.0
  0
LINE
  5
F8
330
2
100
AcDbEntity
  8
0
 62
     3
100
AcDbLine
 10
57.99866017219994
 20
172.6979618902
 30
0.0
 11
57.45710667489999
 21
172.6979618902
 31
0.0
  0
LINE
  5
F9
330
2
100
AcDbEntity
  8
0
 62
     3
100
AcDbLine
 10
57.45702323989997
 20
172.2610545227
 30
0.0
 11
57.94704854349999
 21
170.4479599476
 31
0.0
  0
LINE
  5
FA
330
2
100
AcDbEntity
  8
0
 62
     3
100
AcDbLine
 10
49.59862049939997
 20
197.097623908
 30
0.0
 11
53.59863575819997
 21
197.097623908
 31
0.0
  0
LINE
  5
FB
330
2
100
AcDbEntity
  8
0
 62
     3
100
AcDbLine
 10
53.59863575819997
 20
192.5976353520999
 30
0.0
 11
49.59862049939997
 21
192.5976353520999
 31
0.0
  0
LINE
  5
FC
330
2
100
AcDbEntity
  8
0
 62
     3
100
AcDbLine
 10
45.99861439589997
 20
187.2476559515
 30
0.0
 11
53.59863575819997
 21
187.2476559515
 31
0.0
  0
LINE
  5
FD
330
2
100
AcDbEntity
  8
0
 62
     3
100
AcDbLine
 10
53.59863575819997
 20
180.2476483220999
 30
0.0
 11
45.95707234269997
 21
180.2476483220999
 31
0.0
  0
LINE
  5
FE
330
2
100
AcDbEntity
  8
0
 62
     3
100
AcDbLine
 10
46.79863270639995
 20
180.2475529546
 30
0.0
 11
46.79863270639995
 21
187.2476178045
 31
0.0
  0
LINE
  5
FF
330
2
100
AcDbEntity
  8
0
 62
     3
100
AcDbLine
 10
43.73186210529996
 20
186.4630768939999
 30
0.0
 11
43.58429953489999
 21
186.7253419959999
 31
0.0
  0
LINE
  5
100
330
2
100
AcDbEntity
  8
0
 62
     3
100
AcDbLine
 10
45.94710815009995
 20
187.2476802389
 30
0.0
 11
45.45707787
 21
185.4345672509
 31
0.0
  0
LINE
  5
101
330
2
100
AcDbEntity
  8
0
 62
     3
100
AcDbLine
 10
44.94049865719995
 20
188.1224888401
 30
0.0
 11
44.29865204979996
 21
185.7476551462
 31
0.0
  0
LINE
  5
102
330
2
100
AcDbEntity
  8
0
 62
     3
100
AcDbLine
 10
45.99861439589997
 20
180.2106266850999
 30
0.0
 11
45.99861439589997
 21
187.2475605839999
 31
0.0
  0
LINE
  5
103
330
2
100
AcDbEntity
  8
0
 62
     3
100
AcDbLine
 10
48.79860218879997
 20
179.0476399296999
 30
0.0
 11
43.93032368539997
 21
179.0476399296999
 31
0.0
  0
LINE
  5
104
330
2
100
AcDbEntity
  8
0
 62
     3
100
AcDbLine
 10
47.39860829239995
 20
178.0476742619999
 30
0.0
 11
45.19863423229998
 21
178.0476742619999
 31
0.0
  0
LINE
  5
105
330
2
100
AcDbEntity
  8
0
 62
     3
100
AcDbLine
 10
43.54136922749995
 20
180.7061418006999
 30
0.0
 11
43.69257789229999
 21
180.9550906387999
 31
0.0
  0
LINE
  5
106
330
2
100
AcDbEntity
  8
0
 62
     3
100
AcDbLine
 10
45.45699084059998
 20
182.0609120751
 30
0.0
 11
45.95698893469995
 21
180.2109181557
 31
0.0
  0
LINE
  5
107
330
2
100
AcDbEntity
  8
0
 62
     3
100
AcDbLine
 10
44.29856502029998
 20
181.7478241797999
 30
0.0
 11
44.82853622679994
 21
179.7869296864
 31
0.0
  0
ARC
  5
108
330
2
100
AcDbEntity
  8
0
 62
     3
100
AcDbCircle
 10
45.79395588759996
 20
180.0475674504999
 30
0.0
 40
1.000000014899999
100
AcDbArc
 50
195.1240418891
 51
270.0000179861
  0
LINE
  5
109
330
2
100
AcDbEntity
  8
0
 62
     3
100
AcDbLine
 10
43.37857409859998
 20
180.5080597673999
 30
0.0
 11
43.54136922749995
 21
180.7061418006999
 31
0.0
  0
LINE
  5
10A
330
2
100
AcDbEntity
  8
0
 62
     3
100
AcDbLine
 10
44.29863270639995
 20
181.7475491399
 30
0.0
 11
44.29863270639995
 21
185.7475262518
 31
0.0
  0
LINE
  5
10B
330
2
100
AcDbEntity
  8
0
 62
     3
100
AcDbLine
 10
43.69257789229999
 20
180.9550906387999
 30
0.0
 11
43.82967118649998
 21
181.2507427087999
 31
0.0
  0
LINE
  5
10C
330
2
100
AcDbEntity
  8
0
 62
     3
100
AcDbLine
 10
43.82967118649998
 20
181.2507427087999
 30
0.0
 11
43.95035627809995
 21
181.5881533445999
 31
0.0
  0
LINE
  5
10D
330
2
100
AcDbEntity
  8
0
 62
     3
100
AcDbLine
 10
43.95035627809995
 20
181.5881533445999
 30
0.0
 11
44.05261475579999
 21
181.9616794842
 31
0.0
  0
LINE
  5
10E
330
2
100
AcDbEntity
  8
0
 62
     3
100
AcDbLine
 10
44.05261475579999
 20
181.9616794842
 30
0.0
 11
44.13473638609997
 21
182.3650740477
 31
0.0
  0
LINE
  5
10F
330
2
100
AcDbEntity
  8
0
 62
     3
100
AcDbLine
 10
44.13473638609997
 20
182.3650740477
 30
0.0
 11
44.19534771659999
 21
182.7915904173999
 31
0.0
  0
LINE
  5
110
330
2
100
AcDbEntity
  8
0
 62
     3
100
AcDbLine
 10
44.19534771659999
 20
182.7915904173999
 30
0.0
 11
44.23343504629997
 21
183.2340952726999
 31
0.0
  0
LINE
  5
111
330
2
100
AcDbEntity
  8
0
 62
     3
100
AcDbLine
 10
44.23343504629997
 20
183.2340952726999
 30
0.0
 11
44.24836137939997
 21
183.6851878912999
 31
0.0
  0
LINE
  5
112
330
2
100
AcDbEntity
  8
0
 62
     3
100
AcDbLine
 10
44.24836137939997
 20
183.6851878912999
 30
0.0
 11
44.23987707879999
 21
184.1373239242999
 31
0.0
  0
LINE
  5
113
330
2
100
AcDbEntity
  8
0
 62
     3
100
AcDbLine
 10
44.23987707879999
 20
184.1373239242999
 30
0.0
 11
44.20812404119999
 21
184.5829415717
 31
0.0
  0
LINE
  5
114
330
2
100
AcDbEntity
  8
0
 62
     3
100
AcDbLine
 10
44.20812404119999
 20
184.5829415717
 30
0.0
 11
44.15363332369998
 21
185.0145880512999
 31
0.0
  0
LINE
  5
115
330
2
100
AcDbEntity
  8
0
 62
     3
100
AcDbLine
 10
44.15363332369998
 20
185.0145880512999
 30
0.0
 11
44.07731626239999
 21
185.4250442430999
 31
0.0
  0
LINE
  5
116
330
2
100
AcDbEntity
  8
0
 62
     3
100
AcDbLine
 10
44.07731626239999
 20
185.4250442430999
 30
0.0
 11
43.9804492307
 21
185.8074454265999
 31
0.0
  0
LINE
  5
117
330
2
100
AcDbEntity
  8
0
 62
     3
100
AcDbLine
 10
43.9804492307
 20
185.8074454265999
 30
0.0
 11
43.86465229209997
 21
186.1553960902
 31
0.0
  0
LINE
  5
118
330
2
100
AcDbEntity
  8
0
 62
     3
100
AcDbLine
 10
43.86465229209997
 20
186.1553960902
 30
0.0
 11
43.73186210529996
 21
186.4630768939999
 31
0.0
  0
LINE
  5
119
330
2
100
AcDbEntity
  8
0
 62
     3
100
AcDbLine
 10
45.45709904549997
 20
184.9976139898
 30
0.0
 11
45.99865254289997
 21
184.9976139898
 31
0.0
  0
LINE
  5
11A
330
2
100
AcDbEntity
  8
0
 62
     3
100
AcDbLine
 10
45.45709904549997
 20
182.4976139898
 30
0.0
 11
45.99865254289997
 21
182.4976139898
 31
0.0
  0
LINE
  5
11B
330
2
100
AcDbEntity
  8
0
 62
     3
100
AcDbLine
 10
45.45709904549997
 20
185.4345303410999
 30
0.0
 11
45.45709904549997
 21
182.060716712
 31
0.0
  0
LINE
  5
11C
330
2
100
AcDbEntity
  8
0
 62
     3
100
AcDbLine
 10
48.79860218879997
 20
180.2476292486
 30
0.0
 11
48.79860218879997
 21
179.0476399296999
 31
0.0
  0
LINE
  5
11D
330
2
100
AcDbEntity
  8
0
 62
     3
100
AcDbLine
 10
47.39860829239995
 20
178.0476361149999
 30
0.0
 11
47.39860829239995
 21
179.0476399296999
 31
0.0
  0
LINE
  5
11E
330
2
100
AcDbEntity
  8
0
 62
     3
100
AcDbLine
 10
43.93036183239996
 20
188.4477215643
 30
0.0
 11
48.79865940929997
 21
188.4477215643
 31
0.0
  0
ARC
  5
11F
330
2
100
AcDbEntity
  8
0
 62
     3
100
AcDbCircle
 10
45.79395588759996
 20
187.601278388
 30
0.0
 40
1.000000014899999
100
AcDbArc
 50
122.1903357231
 51
148.5930603372
  0
LINE
  5
120
330
2
100
AcDbEntity
  8
0
 62
     3
100
AcDbLine
 10
43.58429953489999
 20
186.7253419959999
 30
0.0
 11
43.42443250759996
 21
186.9378051138999
 31
0.0
  0
LINE
  5
121
330
2
100
AcDbEntity
  8
0
 62
     3
100
AcDbLine
 10
43.42443250759996
 20
186.9378051138999
 30
0.0
 11
43.25493473739999
 21
187.0969128846999
 31
0.0
  0
LINE
  5
122
330
2
100
AcDbEntity
  8
0
 62
     3
100
AcDbLine
 10
48.79860218879997
 20
188.4476071233
 30
0.0
 11
48.79860218879997
 21
187.2476178045
 31
0.0
  0
LINE
  5
123
330
2
100
AcDbEntity
  8
0
 62
     3
100
AcDbLine
 10
49.59862049939997
 20
192.5976162786
 30
0.0
 11
49.59862049939997
 21
197.0976048345
 31
0.0
  0
ARC
  5
124
330
2
100
AcDbEntity
  8
0
 62
     3
100
AcDbCircle
 10
55.93029316789998
 20
177.6478749151
 30
0.0
 40
1.000000014899999
100
AcDbArc
 50
89.99992737239997
 51
179.9999093863
  0
ARC
  5
125
330
2
100
AcDbEntity
  8
0
 62
     3
100
AcDbCircle
 10
54.09422215339998
 20
174.2967015141999
 30
0.0
 40
3.250031471299998
100
AcDbArc
 50
71.5047586472
 51
104.169892466
  0
ARC
  5
126
330
2
100
AcDbEntity
  8
0
 62
     3
100
AcDbCircle
 10
54.09420308
 20
174.2967015141999
 30
0.0
 40
3.250031471299998
100
AcDbArc
 50
71.5047586472
 51
104.169892466
  0
LINE
  5
127
330
2
100
AcDbEntity
  8
0
 62
     3
100
AcDbLine
 10
54.27611597489999
 20
178.1386583021
 30
0.0
 11
55.60646590899998
 21
178.5939961546
 31
0.0
  0
LINE
  5
128
330
2
100
AcDbEntity
  8
0
 62
     3
100
AcDbLine
 10
52.89377469989998
 20
177.2983293810999
 30
0.0
 11
52.73426263199997
 21
177.1508983747
 31
0.0
  0
LINE
  5
129
330
2
100
AcDbEntity
  8
0
 62
     3
100
AcDbLine
 10
52.73426263199997
 20
177.1508983747
 30
0.0
 11
52.58307788119998
 21
176.9562026304
 31
0.0
  0
ARC
  5
12A
330
2
100
AcDbEntity
  8
0
 62
     3
100
AcDbCircle
 10
52.77794178849996
 20
176.2496548528
 30
0.0
 40
0.4999999702000001
100
AcDbArc
 50
157.9652273501999
 51
210.0001219569997
  0
LINE
  5
12B
330
2
100
AcDbEntity
  8
0
 62
     3
100
AcDbLine
 10
52.07797883479995
 20
175.6619289038
 30
0.0
 11
52.00002202349998
 21
175.2557648728999
 31
0.0
  0
LINE
  5
12C
330
2
100
AcDbEntity
  8
0
 62
     3
100
AcDbLine
 10
52.44245135389999
 20
176.7171151100999
 30
0.0
 11
52.31445815820001
 21
176.4371638279
 31
0.0
  0
LINE
  5
12D
330
2
100
AcDbEntity
  8
0
 62
     3
100
AcDbLine
 10
52.53992375259997
 20
175.6619816656
 30
0.0
 11
52.07804020759997
 21
175.6619816656
 31
0.0
  0
LINE
  5
12E
330
2
100
AcDbEntity
  8
0
 62
     3
100
AcDbLine
 10
52.58307788119998
 20
176.9562026304
 30
0.0
 11
52.44245135389999
 21
176.7171151100999
 31
0.0
  0
LINE
  5
12F
330
2
100
AcDbEntity
  8
0
 62
     3
100
AcDbLine
 10
54.24797916099999
 20
177.5431273206
 30
0.0
 11
54.27617909129998
 21
178.1386781444999
 31
0.0
  0
LINE
  5
130
330
2
100
AcDbEntity
  8
0
 62
     3
100
AcDbLine
 10
54.33997817889999
 20
175.1515113758999
 30
0.0
 11
54.1152632532
 21
175.9622578142
 31
0.0
  0
LINE
  5
131
330
2
100
AcDbEntity
  8
0
 62
     3
100
AcDbLine
 10
54.17786630839998
 20
176.6714294899999
 30
0.0
 11
54.03928483949997
 21
176.917867293
 31
0.0
  0
LINE
  5
132
330
2
100
AcDbEntity
  8
0
 62
     3
100
AcDbLine
 10
54.03928483949997
 20
176.917867293
 30
0.0
 11
53.88977356859999
 21
177.1204790023999
 31
0.0
  0
LINE
  5
133
330
2
100
AcDbEntity
  8
0
 62
     3
100
AcDbLine
 10
53.88977356859999
 20
177.1204790023999
 30
0.0
 11
53.73153870819999
 21
177.2762748469999
 31
0.0
  0
LINE
  5
134
330
2
100
AcDbEntity
  8
0
 62
     3
100
AcDbLine
 10
53.73153870819999
 20
177.2762748469999
 30
0.0
 11
53.56691519759997
 21
177.3829558781999
 31
0.0
  0
LINE
  5
135
330
2
100
AcDbEntity
  8
0
 62
     3
100
AcDbLine
 10
53.56691519759997
 20
177.3829558781999
 30
0.0
 11
53.39833224799997
 21
177.4389478932999
 31
0.0
  0
LINE
  5
136
330
2
100
AcDbEntity
  8
0
 62
     3
100
AcDbLine
 10
53.39833224799997
 20
177.4389478932999
 30
0.0
 11
53.22827749659999
 21
177.4434246650999
 31
0.0
  0
LINE
  5
137
330
2
100
AcDbEntity
  8
0
 62
     3
100
AcDbLine
 10
53.22827749659999
 20
177.4434246650999
 30
0.0
 11
53.05926029879998
 21
177.3963201336999
 31
0.0
  0
LINE
  5
138
330
2
100
AcDbEntity
  8
0
 62
     3
100
AcDbLine
 10
53.05926029879998
 20
177.3963201336999
 30
0.0
 11
52.89377469989998
 21
177.2983293810999
 31
0.0
  0
ARC
  5
139
330
2
100
AcDbEntity
  8
0
 62
     3
100
AcDbCircle
 10
57.79394444349998
 20
177.6478558416
 30
0.0
 40
1.000000014899999
100
AcDbArc
 50
89.99992737239997
 51
164.8759034694
  0
LINE
  5
13A
330
2
100
AcDbEntity
  8
0
 62
     3
100
AcDbLine
 10
56.8285582199
 20
177.9087435312
 30
0.0
 11
56.29858701329999
 21
175.9478490377999
 31
0.0
  0
LINE
  5
13B
330
2
100
AcDbEntity
  8
0
 62
     3
100
AcDbLine
 10
54.93032750009996
 20
177.437341773
 30
0.0
 11
54.93032750009996
 21
177.6478367681
 31
0.0
  0
LINE
  5
13C
330
2
100
AcDbEntity
  8
0
 62
     3
100
AcDbLine
 10
56.13476153789997
 20
175.3303542385999
 30
0.0
 11
56.05263878879998
 21
175.7337471434999
 31
0.0
  0
LINE
  5
13D
330
2
100
AcDbEntity
  8
0
 62
     3
100
AcDbLine
 10
56.05263878879998
 20
175.7337471434999
 30
0.0
 11
55.95037891799996
 21
176.1072715687
 31
0.0
  0
LINE
  5
13E
330
2
100
AcDbEntity
  8
0
 62
     3
100
AcDbLine
 10
55.95037891799996
 20
176.1072715687
 30
0.0
 11
55.82969218209999
 21
176.4446804629999
 31
0.0
  0
LINE
  5
13F
330
2
100
AcDbEntity
  8
0
 62
     3
100
AcDbLine
 10
55.82969218209999
 20
176.4446804629999
 30
0.0
 11
55.69259702009998
 21
176.7403307935999
 31
0.0
  0
LINE
  5
140
330
2
100
AcDbEntity
  8
0
 62
     3
100
AcDbLine
 10
55.69259702009998
 20
176.7403307935999
 30
0.0
 11
55.54138629529996
 21
176.9892779232999
 31
0.0
  0
LINE
  5
141
330
2
100
AcDbEntity
  8
0
 62
     3
100
AcDbLine
 10
55.54138629529996
 20
176.9892779232999
 30
0.0
 11
55.37858894849995
 21
177.1873583079
 31
0.0
  0
LINE
  5
142
330
2
100
AcDbEntity
  8
0
 62
     3
100
AcDbLine
 10
55.37858894849995
 20
177.1873583079
 30
0.0
 11
55.20692770209999
 21
177.3312591299
 31
0.0
  0
LINE
  5
143
330
2
100
AcDbEntity
  8
0
 62
     3
100
AcDbLine
 10
55.20692770209999
 20
177.3312591299
 30
0.0
 11
55.02927352399999
 21
177.4185737038
 31
0.0
  0
LINE
  5
144
330
2
100
AcDbEntity
  8
0
 62
     3
100
AcDbLine
 10
55.02927352399999
 20
177.4185737038
 30
0.0
 11
54.84859761119998
 21
177.4478417272
 31
0.0
  0
LINE
  5
145
330
2
100
AcDbEntity
  8
0
 62
     3
100
AcDbLine
 10
57.99866017219994
 20
175.1979618902
 30
0.0
 11
57.45710667489999
 21
175.1979618902
 31
0.0
  0
LINE
  5
146
330
2
100
AcDbEntity
  8
0
 62
     3
100
AcDbLine
 10
57.95699749139996
 20
177.4847784511999
 30
0.0
 11
57.45699442079999
 21
175.634766119
 31
0.0
  0
LINE
  5
147
330
2
100
AcDbEntity
  8
0
 62
     3
100
AcDbLine
 10
43.25493473739999
 20
219.0968605255999
 30
0.0
 11
43.07864100869998
 21
219.1999531343
 31
0.0
  0
ARC
  5
148
330
2
100
AcDbEntity
  8
0
 62
     3
100
AcDbCircle
 10
43.93028553849996
 20
219.4475346441
 30
0.0
 40
1.000000014899999
100
AcDbArc
 50
89.99992737239997
 51
179.9999093863
  0
LINE
  5
149
330
2
100
AcDbEntity
  8
0
 62
     3
100
AcDbLine
 10
42.27616698709996
 20
219.9384750017999
 30
0.0
 11
43.60651692119998
 21
220.3938128542
 31
0.0
  0
LINE
  5
14A
330
2
100
AcDbEntity
  8
0
 62
     3
100
AcDbLine
 10
43.20691519089996
 20
212.364105352
 30
0.0
 11
43.37857409859998
 21
212.5080065660999
 31
0.0
  0
ARC
  5
14B
330
2
100
AcDbEntity
  8
0
 62
     3
100
AcDbCircle
 10
43.93028553849996
 20
212.0475369329
 30
0.0
 40
1.000000014899999
100
AcDbArc
 50
180.0000359722
 51
270.0000179861
  0
LINE
  5
14C
330
2
100
AcDbEntity
  8
0
 62
     3
100
AcDbLine
 10
43.60654075829995
 20
211.1014470058
 30
0.0
 11
42.27620887
 21
211.5567786816999
 31
0.0
  0
LINE
  5
14D
330
2
100
AcDbEntity
  8
0
 62
     3
100
AcDbLine
 10
53.59863575819997
 20
199.8476200933
 30
0.0
 11
41.59862812879999
 21
199.8476200933
 31
0.0
  0
LINE
  5
14E
330
2
100
AcDbEntity
  8
0
 62
     3
100
AcDbLine
 10
32.59863194350001
 20
205.8477764959
 30
0.0
 11
41.59862812879999
 21
205.8477764959
 31
0.0
  0
LINE
  5
14F
330
2
100
AcDbEntity
  8
0
 62
     3
100
AcDbLine
 10
41.47114744499996
 20
215.7476560884
 30
0.0
 11
40.48150094939996
 21
214.0335377848999
 31
0.0
  0
LINE
  5
150
330
2
100
AcDbEntity
  8
0
 62
     3
100
AcDbLine
 10
41.64505755829998
 20
215.7475691452999
 30
0.0
 11
42.33997133959997
 21
214.5439429645
 31
0.0
  0
LINE
  5
151
330
2
100
AcDbEntity
  8
0
 62
     3
100
AcDbLine
 10
41.06775996569999
 20
215.7476684064998
 30
0.0
 11
40.07810393339997
 21
214.0335335849
 31
0.0
  0
LINE
  5
152
330
2
100
AcDbEntity
  8
0
 62
     3
100
AcDbLine
 10
39.90959743129997
 20
215.3098546578
 30
0.0
 11
39.94359081209998
 21
214.8674395021998
 31
0.0
  0
LINE
  5
153
330
2
100
AcDbEntity
  8
0
 62
     3
100
AcDbLine
 10
41.24090489269997
 20
215.2475338811
 30
0.0
 11
41.75978001479998
 21
215.2475338811
 31
0.0
  0
LINE
  5
154
330
2
100
AcDbEntity
  8
0
 62
     3
100
AcDbLine
 10
41.22828894069999
 20
212.2519395112
 30
0.0
 11
41.39834369209999
 21
212.2564162952
 31
0.0
  0
ARC
  5
155
330
2
100
AcDbEntity
  8
0
 62
     3
100
AcDbCircle
 10
42.09419545059995
 20
215.3986912603
 30
0.0
 40
3.250031471299998
100
AcDbArc
 50
255.8300528924999
 51
288.4951867112
  0
LINE
  5
156
330
2
100
AcDbEntity
  8
0
 62
     3
100
AcDbLine
 10
41.24091778719997
 20
215.2475703994999
 30
0.0
 11
42.11524629619998
 21
213.7331887416999
 31
0.0
  0
LINE
  5
157
330
2
100
AcDbEntity
  8
0
 62
     3
100
AcDbLine
 10
41.05927174289996
 20
212.2990441709999
 30
0.0
 11
41.22828894069999
 21
212.2519395112
 31
0.0
  0
ARC
  5
158
330
2
100
AcDbEntity
  8
0
 62
     3
100
AcDbCircle
 10
40.7779341591
 20
213.4457379217
 30
0.0
 40
0.4999999702000001
100
AcDbArc
 50
149.9998607402
 51
202.0347553469
  0
LINE
  5
159
330
2
100
AcDbEntity
  8
0
 62
     3
100
AcDbLine
 10
40.0780325783
 20
214.0333538884998
 30
0.0
 11
40.53991612319999
 21
214.0333538884998
 31
0.0
  0
LINE
  5
15A
330
2
100
AcDbEntity
  8
0
 62
     3
100
AcDbLine
 10
39.94359081209998
 20
214.8674395021998
 30
0.0
 11
40.00003346759996
 21
214.4396052642999
 31
0.0
  0
LINE
  5
15B
330
2
100
AcDbEntity
  8
0
 62
     3
100
AcDbLine
 10
40.00003346759996
 20
214.4396052642999
 30
0.0
 11
40.07799027889999
 21
214.0334401266999
 31
0.0
  0
LINE
  5
15C
330
2
100
AcDbEntity
  8
0
 62
     3
100
AcDbLine
 10
40.31446960219997
 20
213.2582030903
 30
0.0
 11
40.44246279799998
 21
212.9782510452
 31
0.0
  0
LINE
  5
15D
330
2
100
AcDbEntity
  8
0
 62
     3
100
AcDbLine
 10
40.44246279799998
 20
212.9782510452
 30
0.0
 11
40.58308932529999
 21
212.7391628734
 31
0.0
  0
LINE
  5
15E
330
2
100
AcDbEntity
  8
0
 62
     3
100
AcDbLine
 10
40.58308932529999
 20
212.7391628734
 30
0.0
 11
40.73427407609995
 21
212.5444665986
 31
0.0
  0
LINE
  5
15F
330
2
100
AcDbEntity
  8
0
 62
     3
100
AcDbLine
 10
40.73427407609995
 20
212.5444665986
 30
0.0
 11
40.89378614399999
 21
212.3970351905999
 31
0.0
  0
LINE
  5
160
330
2
100
AcDbEntity
  8
0
 62
     3
100
AcDbLine
 10
40.89378614399999
 20
212.3970351905999
 30
0.0
 11
41.05927174289996
 21
212.2990441709999
 31
0.0
  0
LINE
  5
161
330
2
100
AcDbEntity
  8
0
 62
     3
100
AcDbLine
 10
41.24099782669998
 20
215.2476686682999
 30
0.0
 11
40.34506888799998
 21
213.6958739625999
 31
0.0
  0
LINE
  5
162
330
2
100
AcDbEntity
  8
0
 62
     3
100
AcDbLine
 10
42.9303198707
 20
212.0474987859
 30
0.0
 11
42.9303198707
 21
212.257993781
 31
0.0
  0
LINE
  5
163
330
2
100
AcDbEntity
  8
0
 62
     3
100
AcDbLine
 10
43.0292634331
 20
212.2767905402
 30
0.0
 11
43.20691519089996
 21
212.364105352
 31
0.0
  0
LINE
  5
164
330
2
100
AcDbEntity
  8
0
 62
     3
100
AcDbLine
 10
42.11537160059998
 20
213.7332311481999
 30
0.0
 11
42.34008652629998
 21
214.5439775864999
 31
0.0
  0
LINE
  5
165
330
2
100
AcDbEntity
  8
0
 62
     3
100
AcDbLine
 10
42.2761851342
 20
211.5569642282999
 30
0.0
 11
42.24798610599998
 21
212.1524960002
 31
0.0
  0
LINE
  5
166
330
2
100
AcDbEntity
  8
0
 62
     3
100
AcDbLine
 10
41.39834369209999
 20
212.2564162952
 30
0.0
 11
41.56692664170001
 21
212.3124084629
 31
0.0
  0
LINE
  5
167
330
2
100
AcDbEntity
  8
0
 62
     3
100
AcDbLine
 10
41.56692664170001
 20
212.3124084629
 30
0.0
 11
41.73155015229997
 21
212.4190897846998
 31
0.0
  0
LINE
  5
168
330
2
100
AcDbEntity
  8
0
 62
     3
100
AcDbLine
 10
41.73155015229997
 20
212.4190897846998
 30
0.0
 11
41.88978501269997
 21
212.5748860537998
 31
0.0
  0
LINE
  5
169
330
2
100
AcDbEntity
  8
0
 62
     3
100
AcDbLine
 10
41.88978501269997
 20
212.5748860537998
 30
0.0
 11
42.03929628359998
 21
212.7774983153
 31
0.0
  0
LINE
  5
16A
330
2
100
AcDbEntity
  8
0
 62
     3
100
AcDbLine
 10
42.03929628359998
 20
212.7774983153
 30
0.0
 11
42.17787775249997
 21
213.0239367897999
 31
0.0
  0
LINE
  5
16B
330
2
100
AcDbEntity
  8
0
 62
     3
100
AcDbLine
 10
42.84858998179998
 20
212.2475224370999
 30
0.0
 11
43.0292634331
 21
212.2767905402
 31
0.0
  0
LINE
  5
16C
330
2
100
AcDbEntity
  8
0
 62
     3
100
AcDbLine
 10
41.75976099339997
 20
215.2475739562999
 30
0.0
 11
42.28352840229999
 21
214.3403820385
 31
0.0
  0
LINE
  5
16D
330
2
100
AcDbEntity
  8
0
 62
     3
100
AcDbLine
 10
41.24090489269997
 20
216.2475376958
 30
0.0
 11
41.75976094129999
 21
216.2475376958
 31
0.0
  0
LINE
  5
16E
330
2
100
AcDbEntity
  8
0
 62
     3
100
AcDbLine
 10
41.06771763679995
 20
215.7475262518
 30
0.0
 11
41.47108372569999
 21
215.7475262518
 31
0.0
  0
LINE
  5
16F
330
2
100
AcDbEntity
  8
0
 62
     3
100
AcDbLine
 10
42.18133189999997
 20
217.8763983604
 30
0.0
 11
41.24099095669999
 21
216.2476797931998
 31
0.0
  0
LINE
  5
170
330
2
100
AcDbEntity
  8
0
 62
     3
100
AcDbLine
 10
41.44823421219999
 20
219.2274816088997
 30
0.0
 11
41.26819790259998
 21
219.2467045854
 31
0.0
  0
LINE
  5
171
330
2
100
AcDbEntity
  8
0
 62
     3
100
AcDbLine
 10
40.55946664179998
 20
217.3265451108
 30
0.0
 11
41.471093349
 21
215.7475610679998
 31
0.0
  0
ARC
  5
172
330
2
100
AcDbEntity
  8
0
 62
     3
100
AcDbCircle
 10
42.09419545059995
 20
216.0963993902
 30
0.0
 40
3.250024318699998
100
AcDbArc
 50
71.50607004359999
 51
110.5385247727
  0
LINE
  5
173
330
2
100
AcDbEntity
  8
0
 62
     3
100
AcDbLine
 10
41.26819790259998
 20
219.2467045854
 30
0.0
 11
41.08866531869998
 21
219.2079546054998
 31
0.0
  0
LINE
  5
174
330
2
100
AcDbEntity
  8
0
 62
     3
100
AcDbLine
 10
40.42873371049995
 20
216.8543987685999
 30
0.0
 11
40.578476365
 21
217.3950535809999
 31
0.0
  0
LINE
  5
175
330
2
100
AcDbEntity
  8
0
 62
     3
100
AcDbLine
 10
40.91261088319996
 20
219.111873663
 30
0.0
 11
40.74295139379995
 21
218.9600535874999
 31
0.0
  0
LINE
  5
176
330
2
100
AcDbEntity
  8
0
 62
     3
100
AcDbLine
 10
40.74295139379995
 20
218.9600535874999
 30
0.0
 11
40.58249769969996
 21
218.7550096721998
 31
0.0
  0
LINE
  5
177
330
2
100
AcDbEntity
  8
0
 62
     3
100
AcDbLine
 10
40.58249769969996
 20
218.7550096721998
 30
0.0
 11
40.43390813209998
 21
218.5001390008
 31
0.0
  0
LINE
  5
178
330
2
100
AcDbEntity
  8
0
 62
     3
100
AcDbLine
 10
40.43390813209998
 20
218.5001390008
 30
0.0
 11
40.29964446219998
 21
218.1996641663999
 31
0.0
  0
LINE
  5
179
330
2
100
AcDbEntity
  8
0
 62
     3
100
AcDbLine
 10
40.29964446219998
 20
218.1996641663999
 30
0.0
 11
40.18193111569996
 21
217.8585633131999
 31
0.0
  0
LINE
  5
17A
330
2
100
AcDbEntity
  8
0
 62
     3
100
AcDbLine
 10
40.18193111569996
 20
217.8585633131999
 30
0.0
 11
40.0827183191
 21
217.4824876608
 31
0.0
  0
LINE
  5
17B
330
2
100
AcDbEntity
  8
0
 62
     3
100
AcDbLine
 10
40.0827183191
 20
217.4824876608
 30
0.0
 11
40.00364978939995
 21
217.0776678768
 31
0.0
  0
LINE
  5
17C
330
2
100
AcDbEntity
  8
0
 62
     3
100
AcDbLine
 10
40.00364978939995
 20
217.0776678768
 30
0.0
 11
39.94603550189998
 21
216.6508108501
 31
0.0
  0
LINE
  5
17D
330
2
100
AcDbEntity
  8
0
 62
     3
100
AcDbLine
 10
39.94603550189998
 20
216.6508108501
 30
0.0
 11
39.91082998649995
 21
216.2089885732999
 31
0.0
  0
LINE
  5
17E
330
2
100
AcDbEntity
  8
0
 62
     3
100
AcDbLine
 10
39.91082998649995
 20
216.2089885732999
 30
0.0
 11
39.89861651369997
 21
215.7595209774
 31
0.0
  0
LINE
  5
17F
330
2
100
AcDbEntity
  8
0
 62
     3
100
AcDbLine
 10
39.89861651369997
 20
215.7595209774
 30
0.0
 11
39.90959743129997
 21
215.3098546578
 31
0.0
  0
LINE
  5
180
330
2
100
AcDbEntity
  8
0
 62
     3
100
AcDbLine
 10
40.57842881039997
 20
217.3950200389
 30
0.0
 11
41.24090813209995
 21
216.2475719996999
 31
0.0
  0
LINE
  5
181
330
2
100
AcDbEntity
  8
0
 62
     3
100
AcDbLine
 10
40.42868693339994
 20
216.8543622028
 30
0.0
 11
41.06769633299999
 21
215.7475652679997
 31
0.0
  0
LINE
  5
182
330
2
100
AcDbEntity
  8
0
 62
     3
100
AcDbLine
 10
41.08866531869998
 20
219.2079546054998
 30
0.0
 11
40.91261088319996
 21
219.111873663
 31
0.0
  0
LINE
  5
183
330
2
100
AcDbEntity
  8
0
 62
     3
100
AcDbLine
 10
42.9303198707
 20
219.2370015019999
 30
0.0
 11
42.9303198707
 21
219.4474774235999
 31
0.0
  0
LINE
  5
184
330
2
100
AcDbEntity
  8
0
 62
     3
100
AcDbLine
 10
43.07864100869998
 20
219.1999531343
 30
0.0
 11
42.89849976579995
 21
219.2453052423999
 31
0.0
  0
ARC
  5
185
330
2
100
AcDbEntity
  8
0
 62
     3
100
AcDbCircle
 10
42.83893879769997
 20
216.8154888981999
 30
0.0
 40
0.4999999702000001
100
AcDbArc
 50
89.99987273089997
 51
149.9998607402
  0
ARC
  5
186
330
2
100
AcDbEntity
  8
0
 62
     3
100
AcDbCircle
 10
42.61421498179998
 20
217.6262837286
 30
0.0
 40
0.4999999702000001
100
AcDbArc
 50
89.99998201389999
 51
149.9999153816999
  0
LINE
  5
187
330
2
100
AcDbEntity
  8
0
 62
     3
100
AcDbLine
 10
42.84451369679996
 20
218.1263966184999
 30
0.0
 11
41.75983416289997
 21
216.2476762362999
 31
0.0
  0
LINE
  5
188
330
2
100
AcDbEntity
  8
0
 62
     3
100
AcDbLine
 10
42.61427220229998
 20
218.1262760991999
 30
0.0
 11
42.84443196179998
 21
218.1262760991999
 31
0.0
  0
LINE
  5
189
330
2
100
AcDbEntity
  8
0
 62
     3
100
AcDbLine
 10
42.40601241109999
 20
217.0656051523
 30
0.0
 11
41.64510467299999
 21
215.7476740659
 31
0.0
  0
LINE
  5
18A
330
2
100
AcDbEntity
  8
0
 62
     3
100
AcDbLine
 10
42.24801516579998
 20
219.3429056010999
 30
0.0
 11
42.27621509619999
 21
219.9384564250999
 31
0.0
  0
LINE
  5
18B
330
2
100
AcDbEntity
  8
0
 62
     3
100
AcDbLine
 10
42.11466835799996
 20
218.5914155578
 30
0.0
 11
41.96179191139998
 21
218.8299146019999
 31
0.0
  0
LINE
  5
18C
330
2
100
AcDbEntity
  8
0
 62
     3
100
AcDbLine
 10
41.96179191139998
 20
218.8299146019999
 30
0.0
 11
41.79792800849997
 21
219.0173458959
 31
0.0
  0
LINE
  5
18D
330
2
100
AcDbEntity
  8
0
 62
     3
100
AcDbLine
 10
41.79792800849997
 20
219.0173458959
 30
0.0
 11
41.62579147959997
 21
219.1506041543
 31
0.0
  0
LINE
  5
18E
330
2
100
AcDbEntity
  8
0
 62
     3
100
AcDbLine
 10
41.62579147959997
 20
219.1506041543
 30
0.0
 11
41.44823421219999
 21
219.2274816088997
 31
0.0
  0
LINE
  5
18F
330
2
100
AcDbEntity
  8
0
 62
     3
100
AcDbLine
 10
41.59862812879999
 20
220.8476239079999
 30
0.0
 11
41.59862812879999
 21
219.3084317083
 31
0.0
  0
LINE
  5
190
330
2
100
AcDbEntity
  8
0
 62
     3
100
AcDbLine
 10
43.06911713749999
 20
217.3156359093999
 30
0.0
 11
42.84441290569998
 21
218.1264446606999
 31
0.0
  0
LINE
  5
191
330
2
100
AcDbEntity
  8
0
 62
     3
100
AcDbLine
 10
42.83897694469999
 20
217.3154621954
 30
0.0
 11
43.06913670419999
 21
217.3154621954
 31
0.0
  0
LINE
  5
192
330
2
100
AcDbEntity
  8
0
 62
     3
100
AcDbLine
 10
45.99861439589997
 20
219.2475872868999
 30
0.0
 11
53.59863575819997
 21
219.2475872868999
 31
0.0
  0
LINE
  5
193
330
2
100
AcDbEntity
  8
0
 62
     3
100
AcDbLine
 10
48.19862660289999
 20
206.6476231450999
 30
0.0
 11
51.92694004899999
 21
206.6476231450999
 31
0.0
  0
LINE
  5
194
330
2
100
AcDbEntity
  8
0
 62
     3
100
AcDbLine
 10
53.59863575819997
 20
212.247598731
 30
0.0
 11
45.99861439589997
 21
212.247598731
 31
0.0
  0
LINE
  5
195
330
2
100
AcDbEntity
  8
0
 62
     3
100
AcDbLine
 10
50.09867443459999
 20
212.2476557820999
 30
0.0
 11
48.1986795917
 21
206.6476743398
 31
0.0
  0
LINE
  5
196
330
2
100
AcDbEntity
  8
0
 62
     3
100
AcDbLine
 10
48.19862660289999
 20
211.0475712652
 30
0.0
 11
48.19862660289999
 21
206.6476040716
 31
0.0
  0
LINE
  5
197
330
2
100
AcDbEntity
  8
0
 62
     3
100
AcDbLine
 10
43.93036183239996
 20
220.4476910467
 30
0.0
 11
48.79865940929997
 21
220.4476910467
 31
0.0
  0
LINE
  5
198
330
2
100
AcDbEntity
  8
0
 62
     3
100
AcDbLine
 10
47.39860829239995
 20
210.0476055974999
 30
0.0
 11
45.19863423229998
 21
210.0476055974999
 31
0.0
  0
LINE
  5
199
330
2
100
AcDbEntity
  8
0
 62
     3
100
AcDbLine
 10
48.79860218879997
 20
211.0475903386999
 30
0.0
 11
43.93032368539997
 21
211.0475903386999
 31
0.0
  0
LINE
  5
19A
330
2
100
AcDbEntity
  8
0
 62
     3
100
AcDbLine
 10
44.23343504629997
 20
215.2340362481
 30
0.0
 11
44.24836137939997
 21
215.6851287649999
 31
0.0
  0
LINE
  5
19B
330
2
100
AcDbEntity
  8
0
 62
     3
100
AcDbLine
 10
45.45709904549997
 20
217.4344426030999
 30
0.0
 11
45.45709904549997
 21
214.0606671208999
 31
0.0
  0
LINE
  5
19C
330
2
100
AcDbEntity
  8
0
 62
     3
100
AcDbLine
 10
44.29863270639995
 20
213.7475186224
 30
0.0
 11
44.29863270639995
 21
217.7474385136999
 31
0.0
  0
LINE
  5
19D
330
2
100
AcDbEntity
  8
0
 62
     3
100
AcDbLine
 10
45.99861439589997
 20
212.2105770939999
 30
0.0
 11
45.99861439589997
 21
219.2475109929998
 31
0.0
  0
LINE
  5
19E
330
2
100
AcDbEntity
  8
0
 62
     3
100
AcDbLine
 10
46.79863270639995
 20
212.2475796575
 30
0.0
 11
46.79863270639995
 21
219.2475872868999
 31
0.0
  0
ARC
  5
19F
330
2
100
AcDbEntity
  8
0
 62
     3
100
AcDbCircle
 10
45.79393681409999
 20
212.0475369329
 30
0.0
 40
1.000000014899999
100
AcDbArc
 50
195.1240418891
 51
270.0000179861
  0
LINE
  5
1A0
330
2
100
AcDbEntity
  8
0
 62
     3
100
AcDbLine
 10
43.37857409859998
 20
212.5080065660999
 30
0.0
 11
43.54136922749995
 21
212.7060874904998
 31
0.0
  0
LINE
  5
1A1
330
2
100
AcDbEntity
  8
0
 62
     3
100
AcDbLine
 10
43.54136922749995
 20
212.7060874904998
 30
0.0
 11
43.69257789229999
 21
212.9550352984999
 31
0.0
  0
LINE
  5
1A2
330
2
100
AcDbEntity
  8
0
 62
     3
100
AcDbLine
 10
43.69257789229999
 20
212.9550352984999
 30
0.0
 11
43.82967118649998
 21
213.2506864346999
 31
0.0
  0
LINE
  5
1A3
330
2
100
AcDbEntity
  8
0
 62
     3
100
AcDbLine
 10
43.82967118649998
 20
213.2506864346999
 30
0.0
 11
43.95035627809995
 21
213.5880962484
 31
0.0
  0
LINE
  5
1A4
330
2
100
AcDbEntity
  8
0
 62
     3
100
AcDbLine
 10
43.95035627809995
 20
213.5880962484
 30
0.0
 11
44.05261475579999
 21
213.9616216912999
 31
0.0
  0
LINE
  5
1A5
330
2
100
AcDbEntity
  8
0
 62
     3
100
AcDbLine
 10
44.05261475579999
 20
213.9616216912999
 30
0.0
 11
44.13473638609997
 21
214.3650156954
 31
0.0
  0
LINE
  5
1A6
330
2
100
AcDbEntity
  8
0
 62
     3
100
AcDbLine
 10
44.13473638609997
 20
214.3650156954
 30
0.0
 11
44.19534771659999
 21
214.7915316523
 31
0.0
  0
LINE
  5
1A7
330
2
100
AcDbEntity
  8
0
 62
     3
100
AcDbLine
 10
44.29858965369999
 20
213.7477706079
 30
0.0
 11
44.82856086019999
 21
211.7868761145
 31
0.0
  0
LINE
  5
1A8
330
2
100
AcDbEntity
  8
0
 62
     3
100
AcDbLine
 10
44.19534771659999
 20
214.7915316523
 30
0.0
 11
44.23343504629997
 21
215.2340362481
 31
0.0
  0
LINE
  5
1A9
330
2
100
AcDbEntity
  8
0
 62
     3
100
AcDbLine
 10
45.45709904549997
 20
214.4975834722
 30
0.0
 11
45.99865254289997
 21
214.4975834722
 31
0.0
  0
LINE
  5
1AA
330
2
100
AcDbEntity
  8
0
 62
     3
100
AcDbLine
 10
45.457015474
 20
214.0608585030999
 30
0.0
 11
45.95702352099997
 21
212.2108277580999
 31
0.0
  0
ARC
  5
1AB
330
2
100
AcDbEntity
  8
0
 62
     3
100
AcDbCircle
 10
45.79393681409999
 20
219.6012478704
 30
0.0
 40
1.000000014899999
100
AcDbArc
 50
122.1903357231
 51
148.5930603372
  0
LINE
  5
1AC
330
2
100
AcDbEntity
  8
0
 62
     3
100
AcDbLine
 10
44.24836137939997
 20
215.6851287649999
 30
0.0
 11
44.23987707879999
 21
216.1372648557999
 31
0.0
  0
LINE
  5
1AD
330
2
100
AcDbEntity
  8
0
 62
     3
100
AcDbLine
 10
44.23987707879999
 20
216.1372648557999
 30
0.0
 11
44.20812404119999
 21
216.5828827194999
 31
0.0
  0
LINE
  5
1AE
330
2
100
AcDbEntity
  8
0
 62
     3
100
AcDbLine
 10
44.20812404119999
 20
216.5828827194999
 30
0.0
 11
44.15363332369998
 21
217.0145295703
 31
0.0
  0
LINE
  5
1AF
330
2
100
AcDbEntity
  8
0
 62
     3
100
AcDbLine
 10
44.15363332369998
 20
217.0145295703
 30
0.0
 11
44.07731626239999
 21
217.4249862819999
 31
0.0
  0
LINE
  5
1B0
330
2
100
AcDbEntity
  8
0
 62
     3
100
AcDbLine
 10
44.07731626239999
 20
217.4249862819999
 30
0.0
 11
43.9804492307
 21
217.8073881253
 31
0.0
  0
LINE
  5
1B1
330
2
100
AcDbEntity
  8
0
 62
     3
100
AcDbLine
 10
43.9804492307
 20
217.8073881253
 30
0.0
 11
43.86465229209997
 21
218.1553395777
 31
0.0
  0
LINE
  5
1B2
330
2
100
AcDbEntity
  8
0
 62
     3
100
AcDbLine
 10
43.86465229209997
 20
218.1553395777
 30
0.0
 11
43.73186210529996
 21
218.4630212861
 31
0.0
  0
LINE
  5
1B3
330
2
100
AcDbEntity
  8
0
 62
     3
100
AcDbLine
 10
43.73186210529996
 20
218.4630212861
 30
0.0
 11
43.58429953489999
 21
218.7252873931999
 31
0.0
  0
LINE
  5
1B4
330
2
100
AcDbEntity
  8
0
 62
     3
100
AcDbLine
 10
43.58429953489999
 20
218.7252873931999
 30
0.0
 11
43.42443250759996
 21
218.9377516002
 31
0.0
  0
LINE
  5
1B5
330
2
100
AcDbEntity
  8
0
 62
     3
100
AcDbLine
 10
43.42443250759996
 20
218.9377516002
 30
0.0
 11
43.25493473739999
 21
219.0968605255999
 31
0.0
  0
LINE
  5
1B6
330
2
100
AcDbEntity
  8
0
 62
     3
100
AcDbLine
 10
44.94047900029994
 20
220.1224536811
 30
0.0
 11
44.29863239279998
 21
217.7476199870999
 31
0.0
  0
LINE
  5
1B7
330
2
100
AcDbEntity
  8
0
 62
     3
100
AcDbLine
 10
45.45709904549997
 20
216.9975834721998
 30
0.0
 11
45.99865254289997
 21
216.9975834721998
 31
0.0
  0
LINE
  5
1B8
330
2
100
AcDbEntity
  8
0
 62
     3
100
AcDbLine
 10
45.94712531889999
 20
219.2476351269
 30
0.0
 11
45.45709503879999
 21
217.4345221389999
 31
0.0
  0
LINE
  5
1B9
330
2
100
AcDbEntity
  8
0
 62
     3
100
AcDbLine
 10
48.79860218879997
 20
211.0475712652
 30
0.0
 11
48.79860218879997
 21
212.2475796575
 31
0.0
  0
LINE
  5
1BA
330
2
100
AcDbEntity
  8
0
 62
     3
100
AcDbLine
 10
47.39860829239995
 20
210.0476055974999
 30
0.0
 11
47.39860829239995
 21
211.0475712652
 31
0.0
  0
LINE
  5
1BB
330
2
100
AcDbEntity
  8
0
 62
     3
100
AcDbLine
 10
48.79860218879997
 20
219.2475872868999
 30
0.0
 11
48.79860218879997
 21
220.4475384588
 31
0.0
  0
LINE
  5
1BC
330
2
100
AcDbEntity
  8
0
 62
     3
100
AcDbLine
 10
54.93032750009996
 20
209.4372921819
 30
0.0
 11
54.93032750009996
 21
209.6477871769999
 31
0.0
  0
LINE
  5
1BD
330
2
100
AcDbEntity
  8
0
 62
     3
100
AcDbLine
 10
56.8285582199
 20
209.9086939401
 30
0.0
 11
56.29858701329999
 21
207.9477994467
 31
0.0
  0
LINE
  5
1BE
330
2
100
AcDbEntity
  8
0
 62
     3
100
AcDbLine
 10
53.59863575819997
 20
220.8478527898
 30
0.0
 11
53.59863575819997
 21
209.5087605352
 31
0.0
  0
ARC
  5
1BF
330
2
100
AcDbEntity
  8
0
 62
     3
100
AcDbCircle
 10
54.09420308
 20
206.2966519230999
 30
0.0
 40
3.250031471299998
100
AcDbArc
 50
71.5047586472
 51
104.169892466
  0
ARC
  5
1C0
330
2
100
AcDbEntity
  8
0
 62
     3
100
AcDbCircle
 10
54.09422215339998
 20
206.2966519230999
 30
0.0
 40
3.250031471299998
100
AcDbArc
 50
71.5047586472
 51
104.169892466
  0
LINE
  5
1C1
330
2
100
AcDbEntity
  8
0
 62
     3
100
AcDbLine
 10
54.84443959119997
 20
203.5690289373
 30
0.0
 11
54.6142798317
 21
203.5690289373
 31
0.0
  0
ARC
  5
1C2
330
2
100
AcDbEntity
  8
0
 62
     3
100
AcDbCircle
 10
55.93029316789998
 20
202.2478276128
 30
0.0
 40
1.000000014899999
100
AcDbArc
 50
180.0000906136999
 51
270.0000726275999
  0
LINE
  5
1C3
330
2
100
AcDbEntity
  8
0
 62
     3
100
AcDbLine
 10
53.75971923459997
 20
205.44779354
 30
0.0
 11
54.84439966259998
 21
203.5690716093
 31
0.0
  0
LINE
  5
1C4
330
2
100
AcDbEntity
  8
0
 62
     3
100
AcDbLine
 10
55.60644854739996
 20
201.3017009893
 30
0.0
 11
54.27611665899999
 21
201.7570326651999
 31
0.0
  0
ARC
  5
1C5
330
2
100
AcDbEntity
  8
0
 62
     3
100
AcDbCircle
 10
54.09420308
 20
205.5989437932999
 30
0.0
 40
3.250024318699998
100
AcDbArc
 50
249.4614752273
 51
288.4939299563999
  0
ARC
  5
1C6
330
2
100
AcDbEntity
  8
0
 62
     3
100
AcDbCircle
 10
54.83894642709998
 20
204.8798542851999
 30
0.0
 40
0.4999999702000001
100
AcDbArc
 50
210.0001392597999
 51
270.0001272691
  0
ARC
  5
1C7
330
2
100
AcDbEntity
  8
0
 62
     3
100
AcDbCircle
 10
54.09422215339998
 20
205.5989437932999
 30
0.0
 40
3.250024318699998
100
AcDbArc
 50
249.4614752273
 51
288.4939299563999
  0
LINE
  5
1C8
330
2
100
AcDbEntity
  8
0
 62
     3
100
AcDbLine
 10
52.18191967159999
 20
203.8367665488999
 30
0.0
 11
52.29963301809999
 21
203.4956666250999
 31
0.0
  0
ARC
  5
1C9
330
2
100
AcDbEntity
  8
0
 62
     3
100
AcDbCircle
 10
54.61424168469998
 20
204.0690594548999
 30
0.0
 40
0.4999999702000001
100
AcDbArc
 50
210.0000846183
 51
270.0000179861
  0
LINE
  5
1CA
330
2
100
AcDbEntity
  8
0
 62
     3
100
AcDbLine
 10
52.74293994969998
 20
202.7352792757998
 30
0.0
 11
52.91259943909998
 21
202.5834596140999
 31
0.0
  0
LINE
  5
1CB
330
2
100
AcDbEntity
  8
0
 62
     3
100
AcDbLine
 10
52.58248625559994
 20
202.9403226324999
 30
0.0
 11
52.74293994969998
 21
202.7352792757998
 31
0.0
  0
LINE
  5
1CC
330
2
100
AcDbEntity
  8
0
 62
     3
100
AcDbLine
 10
52.29963301809999
 20
203.4956666250999
 30
0.0
 11
52.43389668799998
 21
203.1951926093999
 31
0.0
  0
LINE
  5
1CD
330
2
100
AcDbEntity
  8
0
 62
     3
100
AcDbLine
 10
52.43389668799998
 20
203.1951926093999
 30
0.0
 11
52.58248625559994
 21
202.9403226324999
 31
0.0
  0
LINE
  5
1CE
330
2
100
AcDbEntity
  8
0
 62
     3
100
AcDbLine
 10
54.27612852919998
 20
201.7570857238998
 30
0.0
 11
54.24792859889999
 21
202.3526365477999
 31
0.0
  0
LINE
  5
1CF
330
2
100
AcDbEntity
  8
0
 62
     3
100
AcDbLine
 10
52.91259943909998
 20
202.5834596140999
 30
0.0
 11
53.08865387459997
 21
202.4873789332999
 31
0.0
  0
LINE
  5
1D0
330
2
100
AcDbEntity
  8
0
 62
     3
100
AcDbLine
 10
53.08865387459997
 20
202.4873789332999
 30
0.0
 11
53.26818645849996
 21
202.448629059
 31
0.0
  0
LINE
  5
1D1
330
2
100
AcDbEntity
  8
0
 62
     3
100
AcDbLine
 10
53.26818645849996
 20
202.448629059
 30
0.0
 11
53.44822276809998
 21
202.4678519831998
 31
0.0
  0
LINE
  5
1D2
330
2
100
AcDbEntity
  8
0
 62
     3
100
AcDbLine
 10
53.44822276809998
 20
202.4678519831998
 30
0.0
 11
53.62578003549998
 21
202.5447292283
 31
0.0
  0
LINE
  5
1D3
330
2
100
AcDbEntity
  8
0
 62
     3
100
AcDbLine
 10
53.62578003549998
 20
202.5447292283
 30
0.0
 11
53.79791656439997
 21
202.6779871236
 31
0.0
  0
LINE
  5
1D4
330
2
100
AcDbEntity
  8
0
 62
     3
100
AcDbLine
 10
53.79791656439997
 20
202.6779871236
 30
0.0
 11
53.96178046729994
 21
202.8654179068
 31
0.0
  0
LINE
  5
1D5
330
2
100
AcDbEntity
  8
0
 62
     3
100
AcDbLine
 10
53.96178046729994
 20
202.8654179068
 30
0.0
 11
54.11465691389998
 21
203.1039163011999
 31
0.0
  0
LINE
  5
1D6
330
2
100
AcDbEntity
  8
0
 62
     3
100
AcDbLine
 10
53.24091097589996
 20
205.4478733846997
 30
0.0
 11
52.57842211749999
 21
204.3004088272998
 31
0.0
  0
LINE
  5
1D7
330
2
100
AcDbEntity
  8
0
 62
     3
100
AcDbLine
 10
53.47109619269997
 20
205.9478843163998
 30
0.0
 11
52.55945994889998
 21
204.3688837554997
 31
0.0
  0
LINE
  5
1D8
330
2
100
AcDbEntity
  8
0
 62
     3
100
AcDbLine
 10
52.3449536617
 20
207.99959633
 30
0.0
 11
53.2408924282
 21
206.4477846019999
 31
0.0
  0
LINE
  5
1D9
330
2
100
AcDbEntity
  8
0
 62
     3
100
AcDbLine
 10
52.07801476199998
 20
207.6619297262999
 30
0.0
 11
53.06766155559998
 21
205.9478109065998
 31
0.0
  0
LINE
  5
1DA
330
2
100
AcDbEntity
  8
0
 62
     3
100
AcDbLine
 10
52.48138572309997
 20
207.6619325075999
 30
0.0
 11
53.47103251670001
 21
205.9478136879
 31
0.0
  0
LINE
  5
1DB
330
2
100
AcDbEntity
  8
0
 62
     3
100
AcDbLine
 10
53.06770615809995
 20
205.9478540614999
 30
0.0
 11
52.42870629529995
 21
204.8410736448999
 31
0.0
  0
LINE
  5
1DC
330
2
100
AcDbEntity
  8
0
 62
     3
100
AcDbLine
 10
52.89377469989998
 20
209.2982797899999
 30
0.0
 11
52.73426263199997
 21
209.1508487837
 31
0.0
  0
LINE
  5
1DD
330
2
100
AcDbEntity
  8
0
 62
     3
100
AcDbLine
 10
52.73426263199997
 20
209.1508487837
 30
0.0
 11
52.58307788119998
 21
208.9561530394
 31
0.0
  0
ARC
  5
1DE
330
2
100
AcDbEntity
  8
0
 62
     3
100
AcDbCircle
 10
52.77794178849996
 20
208.2496052618
 30
0.0
 40
0.4999999702000001
100
AcDbArc
 50
157.9652273501999
 51
210.0001219569997
  0
LINE
  5
1DF
330
2
100
AcDbEntity
  8
0
 62
     3
100
AcDbLine
 10
52.07797883479995
 20
207.6618793128
 30
0.0
 11
52.00002202349998
 21
207.2557152818999
 31
0.0
  0
LINE
  5
1E0
330
2
100
AcDbEntity
  8
0
 62
     3
100
AcDbLine
 10
52.00002202349998
 20
207.2557152818999
 30
0.0
 11
51.94357936799997
 21
206.8278822096997
 31
0.0
  0
LINE
  5
1E1
330
2
100
AcDbEntity
  8
0
 62
     3
100
AcDbLine
 10
51.94357936799997
 20
206.8278822096997
 30
0.0
 11
51.90958598729998
 21
206.3854682595999
 31
0.0
  0
LINE
  5
1E2
330
2
100
AcDbEntity
  8
0
 62
     3
100
AcDbLine
 10
51.90958598729998
 20
206.3854682595999
 30
0.0
 11
51.89860506959997
 21
205.9358031651998
 31
0.0
  0
LINE
  5
1E3
330
2
100
AcDbEntity
  8
0
 62
     3
100
AcDbLine
 10
51.89860506959997
 20
205.9358031651998
 30
0.0
 11
51.9108185424
 21
205.4863367939999
 31
0.0
  0
LINE
  5
1E4
330
2
100
AcDbEntity
  8
0
 62
     3
100
AcDbLine
 10
51.9108185424
 20
205.4863367939999
 30
0.0
 11
51.94602405779995
 21
205.0445157211
 31
0.0
  0
LINE
  5
1E5
330
2
100
AcDbEntity
  8
0
 62
     3
100
AcDbLine
 10
51.94602405779995
 20
205.0445157211
 30
0.0
 11
52.00363834539999
 21
204.6176598575
 31
0.0
  0
LINE
  5
1E6
330
2
100
AcDbEntity
  8
0
 62
     3
100
AcDbLine
 10
52.00363834539999
 20
204.6176598575
 30
0.0
 11
52.08270687499998
 21
204.2128411765999
 31
0.0
  0
LINE
  5
1E7
330
2
100
AcDbEntity
  8
0
 62
     3
100
AcDbLine
 10
52.08270687499998
 20
204.2128411765999
 30
0.0
 11
52.18191967159999
 21
203.8367665488999
 31
0.0
  0
LINE
  5
1E8
330
2
100
AcDbEntity
  8
0
 62
     3
100
AcDbLine
 10
52.44245135389999
 20
208.717065519
 30
0.0
 11
52.31445815820001
 21
208.4371142368
 31
0.0
  0
LINE
  5
1E9
330
2
100
AcDbEntity
  8
0
 62
     3
100
AcDbLine
 10
52.57841664339998
 20
204.3004409224
 30
0.0
 11
52.42867398889996
 21
204.8410957347999
 31
0.0
  0
LINE
  5
1EA
330
2
100
AcDbEntity
  8
0
 62
     3
100
AcDbLine
 10
52.53992375259997
 20
207.6619320744999
 30
0.0
 11
52.07804020759997
 21
207.6619320744999
 31
0.0
  0
LINE
  5
1EB
330
2
100
AcDbEntity
  8
0
 62
     3
100
AcDbLine
 10
52.58307788119998
 20
208.9561530394
 30
0.0
 11
52.44245135389999
 21
208.717065519
 31
0.0
  0
LINE
  5
1EC
330
2
100
AcDbEntity
  8
0
 62
     3
100
AcDbLine
 10
53.56691519759997
 20
209.3829062870999
 30
0.0
 11
53.39833224799997
 21
209.4388983021999
 31
0.0
  0
LINE
  5
1ED
330
2
100
AcDbEntity
  8
0
 62
     3
100
AcDbLine
 10
53.39833224799997
 20
209.4388983021999
 30
0.0
 11
53.22827749659999
 21
209.443375074
 31
0.0
  0
LINE
  5
1EE
330
2
100
AcDbEntity
  8
0
 62
     3
100
AcDbLine
 10
53.22827749659999
 20
209.443375074
 30
0.0
 11
53.05926029879998
 21
209.3962705426
 31
0.0
  0
LINE
  5
1EF
330
2
100
AcDbEntity
  8
0
 62
     3
100
AcDbLine
 10
53.05926029879998
 20
209.3962705426
 30
0.0
 11
52.89377469989998
 21
209.2982797899999
 31
0.0
  0
LINE
  5
1F0
330
2
100
AcDbEntity
  8
0
 62
     3
100
AcDbLine
 10
54.11524628659998
 20
207.9622135535
 30
0.0
 11
53.24093714909998
 21
206.4478654481999
 31
0.0
  0
LINE
  5
1F1
330
2
100
AcDbEntity
  8
0
 62
     3
100
AcDbLine
 10
54.33995481189999
 20
207.1514688673999
 30
0.0
 11
53.64506040209997
 21
205.9478762389999
 31
0.0
  0
LINE
  5
1F2
330
2
100
AcDbEntity
  8
0
 62
     3
100
AcDbLine
 10
53.24087602839998
 20
205.4477899831999
 30
0.0
 11
54.18121786579996
 21
203.8190698674
 31
0.0
  0
LINE
  5
1F3
330
2
100
AcDbEntity
  8
0
 62
     3
100
AcDbLine
 10
53.64498974469999
 20
205.9477957104
 30
0.0
 11
54.40589778089997
 21
204.6298641077998
 31
0.0
  0
LINE
  5
1F4
330
2
100
AcDbEntity
  8
0
 62
     3
100
AcDbLine
 10
54.33997817889999
 20
207.1514617849
 30
0.0
 11
54.1152632532
 21
207.9622082231999
 31
0.0
  0
LINE
  5
1F5
330
2
100
AcDbEntity
  8
0
 62
     3
100
AcDbLine
 10
53.7597876442
 20
206.4477520817999
 30
0.0
 11
53.24091252209999
 21
206.4477520817999
 31
0.0
  0
LINE
  5
1F6
330
2
100
AcDbEntity
  8
0
 62
     3
100
AcDbLine
 10
53.47109135509999
 20
205.9477787846998
 30
0.0
 11
53.06772526619997
 21
205.9477787846998
 31
0.0
  0
LINE
  5
1F7
330
2
100
AcDbEntity
  8
0
 62
     3
100
AcDbLine
 10
53.75976857069997
 20
205.4477673405999
 30
0.0
 11
53.24091252209999
 21
205.4477673405999
 31
0.0
  0
LINE
  5
1F8
330
2
100
AcDbEntity
  8
0
 62
     3
100
AcDbLine
 10
54.28352144849998
 20
207.3550463761
 30
0.0
 11
53.75975430039995
 21
206.4478549099999
 31
0.0
  0
LINE
  5
1F9
330
2
100
AcDbEntity
  8
0
 62
     3
100
AcDbLine
 10
54.17786630839998
 20
208.6713798989999
 30
0.0
 11
54.03928483949997
 21
208.9178177019999
 31
0.0
  0
LINE
  5
1FA
330
2
100
AcDbEntity
  8
0
 62
     3
100
AcDbLine
 10
54.03928483949997
 20
208.9178177019999
 30
0.0
 11
53.88977356859999
 21
209.1204294113999
 31
0.0
  0
LINE
  5
1FB
330
2
100
AcDbEntity
  8
0
 62
     3
100
AcDbLine
 10
53.88977356859999
 20
209.1204294113999
 30
0.0
 11
53.73153870819999
 21
209.276225256
 31
0.0
  0
LINE
  5
1FC
330
2
100
AcDbEntity
  8
0
 62
     3
100
AcDbLine
 10
53.73153870819999
 20
209.276225256
 30
0.0
 11
53.56691519759997
 21
209.3829062870999
 31
0.0
  0
LINE
  5
1FD
330
2
100
AcDbEntity
  8
0
 62
     3
100
AcDbLine
 10
54.84436450599997
 20
203.5690689877
 30
0.0
 11
55.06906873779996
 21
204.3798777389998
 31
0.0
  0
LINE
  5
1FE
330
2
100
AcDbEntity
  8
0
 62
     3
100
AcDbLine
 10
55.86467376429997
 20
203.5399910929999
 30
0.0
 11
55.98047228049998
 21
203.8879415972999
 31
0.0
  0
LINE
  5
1FF
330
2
100
AcDbEntity
  8
0
 62
     3
100
AcDbLine
 10
57.45702323989997
 20
204.2610049315999
 30
0.0
 11
57.94704854349999
 21
202.4479103565
 31
0.0
  0
LINE
  5
200
330
2
100
AcDbEntity
  8
0
 62
     3
100
AcDbLine
 10
56.29859741959998
 20
203.9479170363999
 30
0.0
 11
57.02832799930002
 21
201.2479124745
 31
0.0
  0
LINE
  5
201
330
2
100
AcDbEntity
  8
0
 62
     3
100
AcDbLine
 10
57.99864109879999
 20
202.4477749699999
 30
0.0
 11
57.99864109879999
 21
209.4846897954998
 31
0.0
  0
LINE
  5
202
330
2
100
AcDbEntity
  8
0
 62
     3
100
AcDbLine
 10
54.93032750009996
 20
202.2477703924
 30
0.0
 11
54.93032750009996
 21
202.458284461
 31
0.0
  0
LINE
  5
203
330
2
100
AcDbEntity
  8
0
 62
     3
100
AcDbLine
 10
54.89850807519997
 20
202.4500283981998
 30
0.0
 11
55.07865177229999
 21
202.4953803828
 31
0.0
  0
LINE
  5
204
330
2
100
AcDbEntity
  8
0
 62
     3
100
AcDbLine
 10
55.07865177229999
 20
202.4953803828
 30
0.0
 11
55.25494790279998
 21
202.5984727104998
 31
0.0
  0
LINE
  5
205
330
2
100
AcDbEntity
  8
0
 62
     3
100
AcDbLine
 10
55.25494790279998
 20
202.5984727104998
 30
0.0
 11
55.4244479823
 21
202.7575812023999
 31
0.0
  0
LINE
  5
206
330
2
100
AcDbEntity
  8
0
 62
     3
100
AcDbLine
 10
55.4244479823
 20
202.7575812023999
 30
0.0
 11
55.58431718759996
 21
202.9700448304998
 31
0.0
  0
LINE
  5
207
330
2
100
AcDbEntity
  8
0
 62
     3
100
AcDbLine
 10
55.58431718759996
 20
202.9700448304998
 30
0.0
 11
55.73188176839997
 21
203.2323102229999
 31
0.0
  0
LINE
  5
208
330
2
100
AcDbEntity
  8
0
 62
     3
100
AcDbLine
 10
55.73188176839997
 20
203.2323102229999
 30
0.0
 11
55.86467376429997
 21
203.5399910929999
 31
0.0
  0
ARC
  5
209
330
2
100
AcDbEntity
  8
0
 62
     3
100
AcDbCircle
 10
57.79394444349998
 20
202.0941143865
 30
0.0
 40
1.000000014899999
100
AcDbArc
 50
211.4069396627999
 51
237.8096642769
  0
LINE
  5
20A
330
2
100
AcDbEntity
  8
0
 62
     3
100
AcDbLine
 10
55.20692770209999
 20
209.3312095388999
 30
0.0
 11
55.02927352399999
 21
209.4185241127
 31
0.0
  0
LINE
  5
20B
330
2
100
AcDbEntity
  8
0
 62
     3
100
AcDbLine
 10
55.02927352399999
 20
209.4185241127
 30
0.0
 11
54.84859761119998
 21
209.4477921361999
 31
0.0
  0
LINE
  5
20C
330
2
100
AcDbEntity
  8
0
 62
     3
100
AcDbLine
 10
56.2986403358
 20
203.9477520818
 30
0.0
 11
56.2986403358
 21
207.9476910467
 31
0.0
  0
LINE
  5
20D
330
2
100
AcDbEntity
  8
0
 62
     3
100
AcDbLine
 10
55.06914433359998
 20
204.3798428411
 30
0.0
 11
54.83898457409998
 21
204.3798428411
 31
0.0
  0
LINE
  5
20E
330
2
100
AcDbEntity
  8
0
 62
     3
100
AcDbLine
 10
55.98047228049998
 20
203.8879415972999
 30
0.0
 11
56.07734063199998
 21
204.2703423987
 31
0.0
  0
LINE
  5
20F
330
2
100
AcDbEntity
  8
0
 62
     3
100
AcDbLine
 10
56.07734063199998
 20
204.2703423987
 30
0.0
 11
56.15365873299999
 21
204.680797992
 31
0.0
  0
LINE
  5
210
330
2
100
AcDbEntity
  8
0
 62
     3
100
AcDbLine
 10
56.15365873299999
 20
204.680797992
 30
0.0
 11
56.20815019279999
 21
205.1124436665999
 31
0.0
  0
LINE
  5
211
330
2
100
AcDbEntity
  8
0
 62
     3
100
AcDbLine
 10
56.20815019279999
 20
205.1124436665999
 30
0.0
 11
56.2399036631
 21
205.5580603161
 31
0.0
  0
LINE
  5
212
330
2
100
AcDbEntity
  8
0
 62
     3
100
AcDbLine
 10
56.2399036631
 20
205.5580603161
 30
0.0
 11
56.24838807929996
 21
206.0101951749
 31
0.0
  0
LINE
  5
213
330
2
100
AcDbEntity
  8
0
 62
     3
100
AcDbLine
 10
56.24838807929996
 20
206.0101951749
 30
0.0
 11
56.23346154279997
 21
206.4612864627
 31
0.0
  0
LINE
  5
214
330
2
100
AcDbEntity
  8
0
 62
     3
100
AcDbLine
 10
56.23346154279997
 20
206.4612864627
 30
0.0
 11
56.1953736941
 21
206.9037898528
 31
0.0
  0
LINE
  5
215
330
2
100
AcDbEntity
  8
0
 62
     3
100
AcDbLine
 10
56.1953736941
 20
206.9037898528
 30
0.0
 11
56.13476153789997
 21
207.3303046474999
 31
0.0
  0
LINE
  5
216
330
2
100
AcDbEntity
  8
0
 62
     3
100
AcDbLine
 10
56.13476153789997
 20
207.3303046474999
 30
0.0
 11
56.05263878879998
 21
207.7336975524
 31
0.0
  0
LINE
  5
217
330
2
100
AcDbEntity
  8
0
 62
     3
100
AcDbLine
 10
56.05263878879998
 20
207.7336975524
 30
0.0
 11
55.95037891799996
 21
208.1072219775999
 31
0.0
  0
LINE
  5
218
330
2
100
AcDbEntity
  8
0
 62
     3
100
AcDbLine
 10
55.95037891799996
 20
208.1072219775999
 30
0.0
 11
55.82969218209999
 21
208.4446308719
 31
0.0
  0
LINE
  5
219
330
2
100
AcDbEntity
  8
0
 62
     3
100
AcDbLine
 10
55.82969218209999
 20
208.4446308719
 30
0.0
 11
55.69259702009998
 21
208.7402812025
 31
0.0
  0
LINE
  5
21A
330
2
100
AcDbEntity
  8
0
 62
     3
100
AcDbLine
 10
55.69259702009998
 20
208.7402812025
 30
0.0
 11
55.54138629529996
 21
208.9892283321999
 31
0.0
  0
LINE
  5
21B
330
2
100
AcDbEntity
  8
0
 62
     3
100
AcDbLine
 10
55.54138629529996
 20
208.9892283321999
 30
0.0
 11
55.37858894849995
 21
209.1873087169
 31
0.0
  0
LINE
  5
21C
330
2
100
AcDbEntity
  8
0
 62
     3
100
AcDbLine
 10
55.37858894849995
 20
209.1873087169
 30
0.0
 11
55.20692770209999
 21
209.3312095388999
 31
0.0
  0
LINE
  5
21D
330
2
100
AcDbEntity
  8
0
 62
     3
100
AcDbLine
 10
57.45710667489999
 20
207.6348286503999
 30
0.0
 11
57.45710667489999
 21
204.2610150213
 31
0.0
  0
LINE
  5
21E
330
2
100
AcDbEntity
  8
0
 62
     3
100
AcDbLine
 10
57.99866017219994
 20
207.1979122990999
 30
0.0
 11
57.45710667489999
 21
207.1979122990999
 31
0.0
  0
LINE
  5
21F
330
2
100
AcDbEntity
  8
0
 62
     3
100
AcDbLine
 10
57.99866017219994
 20
204.6979122990999
 30
0.0
 11
57.45710667489999
 21
204.6979122990999
 31
0.0
  0
LINE
  5
220
330
2
100
AcDbEntity
  8
0
 62
     3
100
AcDbLine
 10
57.95699749139996
 20
209.4847288601
 30
0.0
 11
57.45699442079999
 21
207.6347165279
 31
0.0
  0
ARC
  5
221
330
2
100
AcDbEntity
  8
0
 62
     3
100
AcDbCircle
 10
55.93029316789998
 20
209.6478253239999
 30
0.0
 40
1.000000014899999
100
AcDbArc
 50
89.99992737239997
 51
179.9999093863
  0
LINE
  5
222
330
2
100
AcDbEntity
  8
0
 62
     3
100
AcDbLine
 10
54.27611597489999
 20
210.1386087110999
 30
0.0
 11
55.60646590899998
 21
210.5939465634999
 31
0.0
  0
LINE
  5
223
330
2
100
AcDbEntity
  8
0
 62
     3
100
AcDbLine
 10
54.24797916099999
 20
209.5430777294999
 30
0.0
 11
54.27617909129998
 21
210.1386285534999
 31
0.0
  0
LINE
  5
224
330
2
100
AcDbEntity
  8
0
 62
     3
100
AcDbLine
 10
57.19864186169999
 20
211.6478329533999
 30
0.0
 11
57.19864186169999
 21
220.8478337163999
 31
0.0
  0
ARC
  5
225
330
2
100
AcDbEntity
  8
0
 62
     3
100
AcDbCircle
 10
57.79394444349998
 20
209.6478062504999
 30
0.0
 40
1.000000014899999
100
AcDbArc
 50
89.99992737239997
 51
164.8759034694
  0
LINE
  5
226
330
2
100
AcDbEntity
  8
0
 62
     3
100
AcDbLine
 10
81.59824742199999
 20
168.8474064703
 30
0.0
 11
81.59824742199999
 21
220.8480435246999
 31
0.0
  0
LINE
  5
227
330
2
100
AcDbEntity
  8
0
 62
     3
100
AcDbLine
 10
65.59860524059999
 20
168.847826087
 30
0.0
 11
65.59860524059999
 21
220.8477764958999
 31
0.0
  0
LINE
  5
228
330
2
100
AcDbEntity
  8
0
 62
     3
100
AcDbLine
 10
65.59858616709999
 20
189.8476582403
 30
0.0
 11
81.59824742199999
 21
189.8476582403
 31
0.0
  0
LINE
  5
229
330
2
100
AcDbEntity
  8
0
 62
     3
100
AcDbLine
 10
58.7986403358
 20
170.4479199285
 30
0.0
 11
58.7986403358
 21
177.4479084843999
 31
0.0
  0
LINE
  5
22A
330
2
100
AcDbEntity
  8
0
 62
     3
100
AcDbLine
 10
60.79860981819999
 20
169.2479115361999
 30
0.0
 11
60.79860981819999
 21
170.4479199285
 31
0.0
  0
LINE
  5
22B
330
2
100
AcDbEntity
  8
0
 62
     3
100
AcDbLine
 10
65.5986243141
 20
183.0479031437999
 30
0.0
 11
60.19863423229998
 21
183.0479031437999
 31
0.0
  0
LINE
  5
22C
330
2
100
AcDbEntity
  8
0
 62
     3
100
AcDbLine
 10
60.19856610889999
 20
183.0478979354999
 30
0.0
 11
62.09855719759997
 21
177.4479275579
 31
0.0
  0
LINE
  5
22D
330
2
100
AcDbEntity
  8
0
 62
     3
100
AcDbLine
 10
60.19863423229998
 20
183.0478840704
 30
0.0
 11
60.19863423229998
 21
178.6479168767999
 31
0.0
  0
LINE
  5
22E
330
2
100
AcDbEntity
  8
0
 62
     3
100
AcDbLine
 10
59.39863499519998
 20
178.6479168767999
 30
0.0
 11
59.39863499519998
 21
179.6479016179999
 31
0.0
  0
LINE
  5
22F
330
2
100
AcDbEntity
  8
0
 62
     3
100
AcDbLine
 10
60.79862889169999
 20
178.6479168767999
 30
0.0
 11
60.79862889169999
 21
177.4479084843999
 31
0.0
  0
LINE
  5
230
330
2
100
AcDbEntity
  8
0
 62
     3
100
AcDbLine
 10
61.59862812879999
 20
197.0978909368
 30
0.0
 11
65.5986243141
 21
197.0978909368
 31
0.0
  0
LINE
  5
231
330
2
100
AcDbEntity
  8
0
 62
     3
100
AcDbLine
 10
65.5986243141
 20
192.5979214544
 30
0.0
 11
61.59862812879999
 21
192.5979214544
 31
0.0
  0
LINE
  5
232
330
2
100
AcDbEntity
  8
0
 62
     3
100
AcDbLine
 10
61.59862812879999
 20
192.5979023808999
 30
0.0
 11
61.59862812879999
 21
197.0978718632999
 31
0.0
  0
LINE
  5
233
330
2
100
AcDbEntity
  8
0
 62
     3
100
AcDbLine
 10
78.59821690439997
 20
168.8474064703
 30
0.0
 11
78.59821690439997
 21
189.8476582403
 31
0.0
  0
LINE
  5
234
330
2
100
AcDbEntity
  8
0
 62
     3
100
AcDbLine
 10
81.59824742199999
 20
199.8477917546999
 30
0.0
 11
65.59860524059999
 21
199.8477917546999
 31
0.0
  0
LINE
  5
235
330
2
100
AcDbEntity
  8
0
 62
     3
100
AcDbLine
 10
60.79862889169999
 20
210.6478672856999
 30
0.0
 11
60.79862889169999
 21
209.4478588933999
 31
0.0
  0
LINE
  5
236
330
2
100
AcDbEntity
  8
0
 62
     3
100
AcDbLine
 10
60.19856610889999
 20
215.0478483444
 30
0.0
 11
62.09855719759997
 21
209.4478779668
 31
0.0
  0
LINE
  5
237
330
2
100
AcDbEntity
  8
0
 62
     3
100
AcDbLine
 10
58.7986403358
 20
202.4478703374
 30
0.0
 11
58.7986403358
 21
209.4478588933999
 31
0.0
  0
LINE
  5
238
330
2
100
AcDbEntity
  8
0
 62
     3
100
AcDbLine
 10
60.79860981819999
 20
201.2478619451
 30
0.0
 11
60.79860981819999
 21
202.4478703374
 31
0.0
  0
LINE
  5
239
330
2
100
AcDbEntity
  8
0
 62
     3
100
AcDbLine
 10
65.5986243141
 20
215.0478535528
 30
0.0
 11
60.19863423229998
 21
215.0478535528
 31
0.0
  0
LINE
  5
23A
330
2
100
AcDbEntity
  8
0
 62
     3
100
AcDbLine
 10
59.39863499519998
 20
210.6478672856999
 30
0.0
 11
59.39863499519998
 21
211.6478520269
 31
0.0
  0
LINE
  5
23B
330
2
100
AcDbEntity
  8
0
 62
     3
100
AcDbLine
 10
60.19863423229998
 20
215.0478344793
 30
0.0
 11
60.19863423229998
 21
210.6478672856999
 31
0.0
  0
LINE
  5
23C
330
2
100
AcDbEntity
  8
0
 62
     3
100
AcDbLine
 10
78.59821690439997
 20
199.8477917546999
 30
0.0
 11
78.59821690439997
 21
220.8480435246999
 31
0.0
  0
LINE
  5
23D
330
2
100
AcDbEntity
  8
0
 62
     3
100
AcDbLine
 10
121.2985709082999
 20
209.8477536077
 30
0.0
 11
118.2985785376999
 21
209.8477536077
 31
0.0
  0
LINE
  5
23E
330
2
100
AcDbEntity
  8
0
 62
     3
100
AcDbLine
 10
118.2985785376999
 20
179.8477345342
 30
0.0
 11
121.7985823523999
 21
179.8477345342
 31
0.0
  0
LINE
  5
23F
330
2
100
AcDbEntity
  8
0
 62
     3
100
AcDbLine
 10
118.2985785376999
 20
209.8477536077
 30
0.0
 11
118.2985785376999
 21
179.8477345342
 31
0.0
  0
LINE
  5
240
330
2
100
AcDbEntity
  8
0
 62
     3
100
AcDbLine
 10
116.5986891638999
 20
179.3475514287999
 30
0.0
 11
116.5986891638999
 21
210.3479367132
 31
0.0
  0
LINE
  5
241
330
2
100
AcDbEntity
  8
0
 62
     3
100
AcDbLine
 10
105.8985747229999
 20
214.3479901189
 30
0.0
 11
105.8985747229999
 21
175.347498023
 31
0.0
  0
LINE
  5
242
330
2
100
AcDbEntity
  8
0
 62
     3
100
AcDbLine
 10
103.5985411536999
 20
175.3475170964999
 30
0.0
 11
103.5985411536999
 21
214.3480091924
 31
0.0
  0
LINE
  5
243
330
2
100
AcDbEntity
  8
0
 62
     3
100
AcDbLine
 10
102.0985258948999
 20
214.3479901189
 30
0.0
 11
102.0985258948999
 21
175.347498023
 31
0.0
  0
LINE
  5
244
330
2
100
AcDbEntity
  8
0
 62
     3
100
AcDbLine
 10
100.5985106360999
 20
214.3479901189
 30
0.0
 11
100.5985106360999
 21
175.347498023
 31
0.0
  0
LINE
  5
245
330
2
100
AcDbEntity
  8
0
 62
     3
100
AcDbLine
 10
97.59846104509998
 20
214.3479901189
 30
0.0
 11
97.59846104509998
 21
175.347498023
 31
0.0
  0
LINE
  5
246
330
2
100
AcDbEntity
  8
0
 62
     3
100
AcDbLine
 10
90.59839619519999
 20
219.8480397099999
 30
0.0
 11
90.59839619519999
 21
169.8474102849999
 31
0.0
  0
LINE
  5
247
330
2
100
AcDbEntity
  8
0
 62
     3
100
AcDbLine
 10
111.7986365210999
 20
177.3475247259
 30
0.0
 11
111.7986365210999
 21
212.3479252691
 31
0.0
  0
LINE
  5
248
330
2
100
AcDbEntity
  8
0
 62
     3
100
AcDbLine
 10
112.0986433875999
 20
177.8475361699999
 30
0.0
 11
112.0986433875999
 21
211.847913825
 31
0.0
  0
LINE
  5
249
330
2
100
AcDbEntity
  8
0
 62
     3
100
AcDbLine
 10
108.0986090552999
 20
177.3475247259
 30
0.0
 11
108.0986090552999
 21
212.3479443426
 31
0.0
  0
LINE
  5
24A
330
2
100
AcDbEntity
  8
0
 62
     3
100
AcDbLine
 10
107.5985785376998
 20
177.8475361699999
 30
0.0
 11
107.5985785376998
 21
211.8479328984999
 31
0.0
  0
LINE
  5
24B
330
2
100
AcDbEntity
  8
0
 62
     3
100
AcDbLine
 10
104.3985411536999
 20
175.347498023
 30
0.0
 11
104.3985411536999
 21
214.3479901189
 31
0.0
  0
LINE
  5
24C
330
2
100
AcDbEntity
  8
0
 62
     3
100
AcDbLine
 10
97.59846104509998
 20
175.347498023
 30
0.0
 11
105.8985747229999
 21
175.347498023
 31
0.0
  0
ARC
  5
24D
330
2
100
AcDbEntity
  8
0
 62
     3
100
AcDbCircle
 10
89.59837330699997
 20
169.8474102849999
 30
0.0
 40
1.000012457399999
100
AcDbArc
 50
270.0000179861
 51
0.0
  0
LINE
  5
24E
330
2
100
AcDbEntity
  8
0
 62
     3
100
AcDbLine
 10
97.59846104509998
 20
176.8475132817999
 30
0.0
 11
90.59839619519999
 21
176.8475132817999
 31
0.0
  0
LINE
  5
24F
330
2
100
AcDbEntity
  8
0
 62
     3
100
AcDbLine
 10
112.0986373210999
 20
177.8475086018999
 30
0.0
 11
116.5986983301999
 21
179.3475287498
 31
0.0
  0
LINE
  5
250
330
2
100
AcDbEntity
  8
0
 62
     3
100
AcDbLine
 10
111.7986365210999
 20
182.8475933904
 30
0.0
 11
108.0986090552999
 21
182.8475933904
 31
0.0
  0
LINE
  5
251
330
2
100
AcDbEntity
  8
0
 62
     3
100
AcDbLine
 10
111.7986365210999
 20
185.3476315373999
 30
0.0
 11
108.0986090552999
 21
185.3476315373999
 31
0.0
  0
LINE
  5
252
330
2
100
AcDbEntity
  8
0
 62
     3
100
AcDbLine
 10
111.7986365210999
 20
181.147573554
 30
0.0
 11
108.0986090552999
 21
181.147573554
 31
0.0
  0
LINE
  5
253
330
2
100
AcDbEntity
  8
0
 62
     3
100
AcDbLine
 10
111.7986365210999
 20
179.7475605839999
 30
0.0
 11
108.0986090552999
 21
179.7475605839999
 31
0.0
  0
LINE
  5
254
330
2
100
AcDbEntity
  8
0
 62
     3
100
AcDbLine
 10
111.7986365210999
 20
178.647535407
 30
0.0
 11
108.0986090552999
 21
178.647535407
 31
0.0
  0
LINE
  5
255
330
2
100
AcDbEntity
  8
0
 62
     3
100
AcDbLine
 10
111.7986365210999
 20
177.8475361699999
 30
0.0
 11
108.0986090552999
 21
177.8475361699999
 31
0.0
  0
LINE
  5
256
330
2
100
AcDbEntity
  8
0
 62
     3
100
AcDbLine
 10
111.7986365210999
 20
177.3475247259
 30
0.0
 11
108.0986090552999
 21
177.3475247259
 31
0.0
  0
LINE
  5
257
330
2
100
AcDbEntity
  8
0
 62
     3
100
AcDbLine
 10
105.8985747229999
 20
180.5975628727999
 30
0.0
 11
107.5985785376998
 21
180.5975628727999
 31
0.0
  0
LINE
  5
258
330
2
100
AcDbEntity
  8
0
 62
     3
100
AcDbLine
 10
105.8985747229999
 20
179.8475628727999
 30
0.0
 11
107.5985785376998
 21
179.8475628727999
 31
0.0
  0
LINE
  5
259
330
2
100
AcDbEntity
  8
0
 62
     3
100
AcDbLine
 10
108.0985609931
 20
177.3474823827
 30
0.0
 11
107.5985442779997
 21
177.8474990979
 31
0.0
  0
LINE
  5
25A
330
2
100
AcDbEntity
  8
0
 62
     3
100
AcDbLine
 10
112.0986305422998
 20
177.8475431012999
 30
0.0
 11
111.7986264754998
 21
177.3475366014
 31
0.0
  0
LINE
  5
25B
330
2
100
AcDbEntity
  8
0
 62
     3
100
AcDbLine
 10
109.1112395179998
 20
192.2477131718999
 30
0.0
 11
108.0986090552999
 21
192.2477131718999
 31
0.0
  0
LINE
  5
25C
330
2
100
AcDbEntity
  8
0
 62
     3
100
AcDbLine
 10
110.1238699805999
 20
189.6476727360999
 30
0.0
 11
108.0986090552999
 21
189.6476727360999
 31
0.0
  0
LINE
  5
25D
330
2
100
AcDbEntity
  8
0
 62
     3
100
AcDbLine
 10
111.0196753394999
 20
187.3476582403
 30
0.0
 11
108.0986090552999
 21
187.3476582403
 31
0.0
  0
LINE
  5
25E
330
2
100
AcDbEntity
  8
0
 62
     3
100
AcDbLine
 10
110.7859869849999
 20
197.4477558964999
 30
0.0
 11
111.7986365210999
 21
197.4477558964999
 31
0.0
  0
LINE
  5
25F
330
2
100
AcDbEntity
  8
0
 62
     3
100
AcDbLine
 10
118.2985785376999
 20
189.8477536076999
 30
0.0
 11
116.5986891638999
 21
189.8477536076999
 31
0.0
  0
LINE
  5
260
330
2
100
AcDbEntity
  8
0
 62
     3
100
AcDbLine
 10
105.8985747229999
 20
214.3479901189
 30
0.0
 11
97.59846104509998
 21
214.3479901189
 31
0.0
  0
ARC
  5
261
330
2
100
AcDbEntity
  8
0
 62
     3
100
AcDbCircle
 10
89.59837330699997
 20
219.8480397099999
 30
0.0
 40
1.000012457399999
100
AcDbArc
 50
0.0
 51
89.99998201389999
  0
LINE
  5
262
330
2
100
AcDbEntity
  8
0
 62
     3
100
AcDbLine
 10
90.59839619519999
 20
212.8479748601999
 30
0.0
 11
97.59846104509998
 21
212.8479748601999
 31
0.0
  0
LINE
  5
263
330
2
100
AcDbEntity
  8
0
 62
     3
100
AcDbLine
 10
116.5986727117999
 20
210.3478681512
 30
0.0
 11
112.0986297973999
 21
211.8478822674998
 31
0.0
  0
LINE
  5
264
330
2
100
AcDbEntity
  8
0
 62
     3
100
AcDbLine
 10
108.0986090552999
 20
206.8478947515
 30
0.0
 11
111.7986365210999
 21
206.8478947515
 31
0.0
  0
LINE
  5
265
330
2
100
AcDbEntity
  8
0
 62
     3
100
AcDbLine
 10
108.0986090552999
 20
208.5479145879
 30
0.0
 11
111.7986365210999
 21
208.5479145879
 31
0.0
  0
LINE
  5
266
330
2
100
AcDbEntity
  8
0
 62
     3
100
AcDbLine
 10
105.8985747229999
 20
209.0979252691
 30
0.0
 11
107.5985785376998
 21
209.0979252691
 31
0.0
  0
LINE
  5
267
330
2
100
AcDbEntity
  8
0
 62
     3
100
AcDbLine
 10
110.3302451026999
 20
200.0477963322998
 30
0.0
 11
111.7986365210999
 21
200.0477963322998
 31
0.0
  0
LINE
  5
268
330
2
100
AcDbEntity
  8
0
 62
     3
100
AcDbLine
 10
109.7733565223
 20
202.5478344793
 30
0.0
 11
111.7986365210999
 21
202.5478344793
 31
0.0
  0
LINE
  5
269
330
2
100
AcDbEntity
  8
0
 62
     3
100
AcDbLine
 10
108.8775511634999
 20
204.8478489750999
 30
0.0
 11
111.7986365210999
 21
204.8478489750999
 31
0.0
  0
LINE
  5
26A
330
2
100
AcDbEntity
  8
0
 62
     3
100
AcDbLine
 10
108.0986090552999
 20
209.9479275579
 30
0.0
 11
111.7986365210999
 21
209.9479275579
 31
0.0
  0
LINE
  5
26B
330
2
100
AcDbEntity
  8
0
 62
     3
100
AcDbLine
 10
108.0986090552999
 20
211.0479336614
 30
0.0
 11
111.7986365210999
 21
211.0479336614
 31
0.0
  0
LINE
  5
26C
330
2
100
AcDbEntity
  8
0
 62
     3
100
AcDbLine
 10
108.0986090552999
 20
211.847951972
 30
0.0
 11
111.7986365210999
 21
211.847951972
 31
0.0
  0
LINE
  5
26D
330
2
100
AcDbEntity
  8
0
 62
     3
100
AcDbLine
 10
108.0986090552999
 20
212.3479443426
 30
0.0
 11
111.7986365210999
 21
212.3479443426
 31
0.0
  0
LINE
  5
26E
330
2
100
AcDbEntity
  8
0
 62
     3
100
AcDbLine
 10
105.8985747229999
 20
209.8479252691
 30
0.0
 11
107.5985785376998
 21
209.8479252691
 31
0.0
  0
LINE
  5
26F
330
2
100
AcDbEntity
  8
0
 62
     3
100
AcDbLine
 10
106.3985411536999
 20
211.4477536077
 30
0.0
 11
107.1985411536999
 21
211.4477536077
 31
0.0
  0
LINE
  5
270
330
2
100
AcDbEntity
  8
0
 62
     3
100
AcDbLine
 10
106.3985411536999
 20
210.7477536077
 30
0.0
 11
106.3985411536999
 21
211.4477536077
 31
0.0
  0
ARC
  5
271
330
2
100
AcDbEntity
  8
0
 62
     3
100
AcDbCircle
 10
105.3985411536999
 20
210.7477536077
 30
0.0
 40
1.0
100
AcDbArc
 50
300.0022209541998
 51
0.0
  0
LINE
  5
272
330
2
100
AcDbEntity
  8
0
 62
     3
100
AcDbLine
 10
107.5985400632999
 20
211.8479032181999
 30
0.0
 11
108.0985491919999
 21
212.347912347
 31
0.0
  0
LINE
  5
273
330
2
100
AcDbEntity
  8
0
 62
     3
100
AcDbLine
 10
107.1985411536999
 20
210.7477536077
 30
0.0
 11
107.1985411536999
 21
211.4477536077
 31
0.0
  0
ARC
  5
274
330
2
100
AcDbEntity
  8
0
 62
     3
100
AcDbCircle
 10
105.3985411536999
 20
210.7477536077
 30
0.0
 40
1.8
100
AcDbArc
 50
330.0063092579
 51
0.0
  0
LINE
  5
275
330
2
100
AcDbEntity
  8
0
 62
     3
100
AcDbLine
 10
111.7986062359999
 20
212.3478630266999
 30
0.0
 11
112.0986065461998
 21
211.8478627878
 31
0.0
  0
LINE
  5
276
330
2
100
AcDbEntity
  8
0
 62
     3
100
AcDbLine
 10
118.2985785376999
 20
199.8477536076999
 30
0.0
 11
116.5986891638999
 21
199.8477536076999
 31
0.0
  0
LINE
  5
277
330
2
100
AcDbEntity
  8
0
 62
     3
100
AcDbLine
 10
123.2985785376999
 20
207.5242215032
 30
0.0
 11
123.2985785376999
 21
181.3477307194999
 31
0.0
  0
LINE
  5
278
330
2
100
AcDbEntity
  8
0
 62
     3
100
AcDbLine
 10
138.2985785377
 20
208.5083561773
 30
0.0
 11
138.2985785377
 21
177.7906399601999
 31
0.0
  0
LINE
  5
279
330
2
100
AcDbEntity
  8
0
 62
     3
100
AcDbLine
 10
121.2985786014999
 20
175.8477183685999
 30
0.0
 11
137.3573025417997
 21
176.7923492520999
 31
0.0
  0
ARC
  5
27A
330
2
100
AcDbEntity
  8
0
 62
     3
100
AcDbCircle
 10
121.7985823523999
 20
181.3477307194999
 30
0.0
 40
1.5000009537
100
AcDbArc
 50
270.0000179861
 51
0.0
  0
LINE
  5
27B
330
2
100
AcDbEntity
  8
0
 62
     3
100
AcDbLine
 10
121.2985709082999
 20
175.8477192753999
 30
0.0
 11
121.2985709082999
 21
179.8477345342
 31
0.0
  0
LINE
  5
27C
330
2
100
AcDbEntity
  8
0
 62
     3
100
AcDbLine
 10
150.1999617469999
 20
176.9477253788999
 30
0.0
 11
150.1999617469999
 21
170.9477406377
 31
0.0
  0
LINE
  5
27D
330
2
100
AcDbEntity
  8
0
 62
     3
100
AcDbLine
 10
149.8999617469999
 20
176.9480496282
 30
0.0
 11
149.8999617469999
 21
170.9480648869999
 31
0.0
  0
ARC
  5
27E
330
2
100
AcDbEntity
  8
0
 62
     3
100
AcDbCircle
 10
137.2985747229997
 20
177.7906590336999
 30
0.0
 40
1.000001206999999
100
AcDbArc
 50
273.3664816241998
 51
0.000255221500014
  0
LINE
  5
27F
330
2
100
AcDbEntity
  8
0
 62
     3
100
AcDbLine
 10
150.1999617469999
 20
186.6977101202
 30
0.0
 11
150.1999617469999
 21
180.6977253788999
 31
0.0
  0
LINE
  5
280
330
2
100
AcDbEntity
  8
0
 62
     3
100
AcDbLine
 10
149.8999617469999
 20
186.6980343694
 30
0.0
 11
149.8999617469999
 21
180.6980496281999
 31
0.0
  0
LINE
  5
281
330
2
100
AcDbEntity
  8
0
 62
     3
100
AcDbLine
 10
121.2985539718999
 20
216.8477433085999
 30
0.0
 11
137.0601004661999
 21
210.3576968438999
 31
0.0
  0
LINE
  5
282
330
2
100
AcDbEntity
  8
0
 62
     3
100
AcDbLine
 10
121.2985694607999
 20
208.3477369970998
 30
0.0
 11
138.2985922152999
 21
201.3477298837
 31
0.0
  0
LINE
  5
283
330
2
100
AcDbEntity
  8
0
 62
     3
100
AcDbLine
 10
121.2985709082999
 20
208.3477574223999
 30
0.0
 11
121.2985709082999
 21
216.8477803106
 31
0.0
  0
ARC
  5
284
330
2
100
AcDbEntity
  8
0
 62
     3
100
AcDbCircle
 10
136.2985709082997
 20
208.5083561773
 30
0.0
 40
2.000001668899999
100
AcDbArc
 50
0.0
 51
67.6198016889
  0
LINE
  5
285
330
2
100
AcDbEntity
  8
0
 62
     3
100
AcDbLine
 10
150.1999617469999
 20
208.9477139348999
 30
0.0
 11
150.1999617469999
 21
202.9477101202
 31
0.0
  0
LINE
  5
286
330
2
100
AcDbEntity
  8
0
 62
     3
100
AcDbLine
 10
149.8999617469999
 20
208.9480381840999
 30
0.0
 11
149.8999617469999
 21
202.9480343693999
 31
0.0
  0
LINE
  5
287
330
2
100
AcDbEntity
  8
0
 62
     3
100
AcDbLine
 10
150.1999617469999
 20
218.6977177495999
 30
0.0
 11
150.1999617469999
 21
212.6977139349
 31
0.0
  0
LINE
  5
288
330
2
100
AcDbEntity
  8
0
 62
     3
100
AcDbLine
 10
149.8999617469999
 20
218.6980419987999
 30
0.0
 11
149.8999617469999
 21
212.6980381841
 31
0.0
  0
CIRCLE
  5
289
330
2
100
AcDbEntity
  8
0
 62
     3
100
AcDbCircle
 10
182.9000235450999
 20
215.3479748601999
 30
0.0
 40
2.750033140199999
  0
LINE
  5
28A
330
2
100
AcDbEntity
  8
0
 62
     3
100
AcDbLine
 10
184.3142546280999
 20
216.7621894242
 30
0.0
 11
181.4857897881999
 21
213.9337245843
 31
0.0
  0
LINE
  5
28B
330
2
100
AcDbEntity
  8
0
 62
     3
100
AcDbLine
 10
184.3142681150998
 20
172.9332575676
 30
0.0
 11
181.4857897881999
 21
175.7617358944999
 31
0.0
  0
CIRCLE
  5
28C
330
2
100
AcDbEntity
  8
0
 62
     3
100
AcDbCircle
 10
182.9000235450999
 20
174.3474751347999
 30
0.0
 40
2.750033140199999
  0
ARC
  5
28D
330
2
100
AcDbEntity
  8
0
 62
     3
100
AcDbCircle
 10
173.3999205481999
 20
194.8477345342
 30
0.0
 40
15.0
100
AcDbArc
 50
297.8181590594
 51
62.18180633489998
  0
ARC
  5
28E
330
2
100
AcDbEntity
  8
0
 62
     3
100
AcDbCircle
 10
173.3999205481999
 20
194.8477345342
 30
0.0
 40
18.75023484229998
100
AcDbArc
 50
291.9211003158998
 51
80.20248546089995
  0
ARC
  5
28F
330
2
100
AcDbEntity
  8
0
 62
     3
100
AcDbCircle
 10
173.3999205481999
 20
194.8477345342
 30
0.0
 40
19.5002412796
100
AcDbArc
 50
289.1995158185
 51
82.53398419440006
  0
LINE
  5
290
330
2
100
AcDbEntity
  8
0
 62
     3
100
AcDbLine
 10
187.2152853859
 20
168.8474064703
 30
0.0
 11
159.5845366370999
 21
168.8474064703
 31
0.0
  0
LINE
  5
291
330
2
100
AcDbEntity
  8
0
 62
     3
100
AcDbLine
 10
159.5845366370999
 20
220.8480435246999
 30
0.0
 11
187.2152853859
 21
220.8480435246999
 31
0.0
  0
LINE
  5
292
330
2
100
AcDbEntity
  8
0
 62
     3
100
AcDbLine
 10
179.3999243628999
 20
201.3476925725998
 30
0.0
 11
179.3999243628999
 21
177.8476887579
 31
0.0
  0
LINE
  5
293
330
2
100
AcDbEntity
  8
0
 62
     3
100
AcDbLine
 10
180.3999281775999
 20
208.3477002019
 30
0.0
 11
180.3999281775999
 21
177.8476887579
 31
0.0
  0
ARC
  5
294
330
2
100
AcDbEntity
  8
0
 62
     3
100
AcDbCircle
 10
173.3999205481999
 20
194.8477345342
 30
0.0
 40
15.0
100
AcDbArc
 50
117.8181403900999
 51
242.1817876656
  0
CIRCLE
  5
295
330
2
100
AcDbEntity
  8
0
 62
     3
100
AcDbCircle
 10
173.3999205481999
 20
194.8477345342
 30
0.0
 40
3.250002861
  0
ARC
  5
296
330
2
100
AcDbEntity
  8
0
 62
     3
100
AcDbCircle
 10
173.3999205481999
 20
194.8477345342
 30
0.0
 40
18.75023484229998
100
AcDbArc
 50
99.79758785000001
 51
248.0789183534
  0
ARC
  5
297
330
2
100
AcDbEntity
  8
0
 62
     3
100
AcDbCircle
 10
173.3999205481999
 20
194.8477345342
 30
0.0
 40
19.5002412796
100
AcDbArc
 50
97.4660344749
 51
250.8004482093999
  0
LINE
  5
298
330
2
100
AcDbEntity
  8
0
 62
     3
100
AcDbLine
 10
167.3999167334999
 20
177.8476887579
 30
0.0
 11
167.3999167334999
 21
201.3476925725998
 31
0.0
  0
LINE
  5
299
330
2
100
AcDbEntity
  8
0
 62
     3
100
AcDbLine
 10
166.3999129188
 20
177.8476887579
 30
0.0
 11
166.3999129188
 21
208.3477002019
 31
0.0
  0
LINE
  5
29A
330
2
100
AcDbEntity
  8
0
 62
     3
100
AcDbLine
 10
153.3996725928999
 20
189.8476582403
 30
0.0
 11
153.3996725928999
 21
199.8477726812
 31
0.0
  0
LINE
  5
29B
330
2
100
AcDbEntity
  8
0
  6
CENTER
 62
     3
100
AcDbLine
 10
173.3999396216999
 20
224.2587834233999
 30
0.0
 11
173.3999396216999
 21
165.7224064703
 31
0.0
  0
ARC
  5
29C
330
2
100
AcDbEntity
  8
0
 62
     3
100
AcDbCircle
 10
168.3999205481998
 20
177.8477078312999
 30
0.0
 40
2.000001668899999
100
AcDbArc
 50
180.0000359722
 51
270.0000179861
  0
CIRCLE
  5
29D
330
2
100
AcDbEntity
  8
0
 62
     3
100
AcDbCircle
 10
163.8997984778999
 20
174.3474751347999
 30
0.0
 40
2.750033140199999
  0
LINE
  5
29E
330
2
100
AcDbEntity
  8
0
 62
     3
100
AcDbLine
 10
163.1926914466999
 20
173.6403763064
 30
0.0
 11
164.6069306101999
 21
175.0546154698
 31
0.0
  0
LINE
  5
29F
330
2
100
AcDbEntity
  8
0
 62
     3
100
AcDbLine
 10
165.3140468201999
 20
172.9332668399
 30
0.0
 11
162.4855684932998
 21
175.7617451667999
 31
0.0
  0
LINE
  5
2A0
330
2
100
AcDbEntity
  8
0
 62
     3
100
AcDbLine
 10
152.3999548804999
 20
176.4477330083
 30
0.0
 11
152.3999548804999
 21
171.4477330083
 31
0.0
  0
LINE
  5
2A1
330
2
100
AcDbEntity
  8
0
 62
     3
100
AcDbLine
 10
158.1253205908999
 20
169.9999713209999
 30
0.0
 11
153.3996684765999
 21
189.8477133631999
 31
0.0
  0
ARC
  5
2A2
330
2
100
AcDbEntity
  8
0
 62
     3
100
AcDbCircle
 10
159.5845366370999
 20
170.3474217289999
 30
0.0
 40
1.500017643
100
AcDbArc
 50
193.3925069722
 51
270.0000179861
  0
LINE
  5
2A3
330
2
100
AcDbEntity
  8
0
 62
     3
100
AcDbLine
 10
151.3999579323
 20
169.4477253789
 30
0.0
 11
158.3847571266
 21
169.4477253789
 31
0.0
  0
LINE
  5
2A4
330
2
100
AcDbEntity
  8
0
 62
     3
100
AcDbLine
 10
151.1999464881999
 20
170.4477291935999
 30
0.0
 11
158.0190039527999
 21
170.4477291935999
 31
0.0
  0
ARC
  5
2A5
330
2
100
AcDbEntity
  8
0
 62
     3
100
AcDbCircle
 10
153.3999586951999
 20
171.4477330083
 30
0.0
 40
0.9999999404
100
AcDbArc
 50
179.9999640277999
 51
270.0000006831999
  0
ARC
  5
2A6
330
2
100
AcDbEntity
  8
0
 62
     3
100
AcDbCircle
 10
153.3999586951999
 20
186.1977177495999
 30
0.0
 40
0.9999999404
100
AcDbArc
 50
89.99998201389999
 51
179.9999640277999
  0
LINE
  5
2A7
330
2
100
AcDbEntity
  8
0
 62
     3
100
AcDbLine
 10
151.3999579323
 20
179.1977101201999
 30
0.0
 11
155.9356833350999
 21
179.1977101201999
 31
0.0
  0
LINE
  5
2A8
330
2
100
AcDbEntity
  8
0
 62
     3
100
AcDbLine
 10
151.1999464881999
 20
180.1977139348999
 30
0.0
 11
155.6975890052999
 21
180.1977139348999
 31
0.0
  0
LINE
  5
2A9
330
2
100
AcDbEntity
  8
0
 62
     3
100
AcDbLine
 10
151.3999960791998
 20
178.4477215643
 30
0.0
 11
156.114325608
 21
178.4477215643
 31
0.0
  0
LINE
  5
2AA
330
2
100
AcDbEntity
  8
0
 62
     3
100
AcDbLine
 10
151.1999464881999
 20
177.4477368229999
 30
0.0
 11
156.3523627173998
 21
177.4477368229999
 31
0.0
  0
ARC
  5
2AB
330
2
100
AcDbEntity
  8
0
 62
     3
100
AcDbCircle
 10
153.3999586951999
 20
181.1977177495999
 30
0.0
 40
0.9999999404
100
AcDbArc
 50
179.9999640277999
 51
270.0000006831999
  0
ARC
  5
2AC
330
2
100
AcDbEntity
  8
0
 62
     3
100
AcDbCircle
 10
153.3999586951999
 20
176.4477330083
 30
0.0
 40
0.9999999404
100
AcDbArc
 50
89.99998201389999
 51
179.9999640277999
  0
LINE
  5
2AD
330
2
100
AcDbEntity
  8
0
 62
     3
100
AcDbLine
 10
152.3999548804999
 20
186.1977177495999
 30
0.0
 11
152.3999548804999
 21
181.1977177495999
 31
0.0
  0
LINE
  5
2AE
330
2
100
AcDbEntity
  8
0
 62
     3
100
AcDbLine
 10
151.3999960791998
 20
188.1977063054999
 30
0.0
 11
153.7928152930998
 21
188.1977063054999
 31
0.0
  0
LINE
  5
2AF
330
2
100
AcDbEntity
  8
0
 62
     3
100
AcDbLine
 10
151.1999464881999
 20
187.1977215642999
 30
0.0
 11
154.0309096228999
 21
187.1977215642999
 31
0.0
  0
LINE
  5
2B0
330
2
100
AcDbEntity
  8
0
 62
     3
100
AcDbLine
 10
174.8141258575
 20
196.2619356853999
 30
0.0
 11
171.9857014785998
 21
193.4335113064
 31
0.0
  0
ARC
  5
2B1
330
2
100
AcDbEntity
  8
0
 62
     3
100
AcDbCircle
 10
173.3999205481999
 20
194.8477345342
 30
0.0
 40
19.50023651119999
100
AcDbArc
 50
256.9946821082
 51
283.005353864
  0
LINE
  5
2B2
330
2
100
AcDbEntity
  8
0
 62
     3
100
AcDbLine
 10
178.3999396217
 20
176.8476849432
 30
0.0
 11
168.3999205481998
 21
176.8476849432
 31
0.0
  0
LINE
  5
2B3
330
2
100
AcDbEntity
  8
0
 62
     3
100
AcDbLine
 10
178.3999396217
 20
175.8477002018999
 30
0.0
 11
168.3999205481998
 21
175.8477002018999
 31
0.0
  0
ARC
  5
2B4
330
2
100
AcDbEntity
  8
0
 62
     3
100
AcDbCircle
 10
168.3999205481998
 20
177.8477078312999
 30
0.0
 40
1.000001206999999
100
AcDbArc
 50
180.0000359722
 51
270.0000179861
  0
LINE
  5
2B5
330
2
100
AcDbEntity
  8
0
 62
     3
100
AcDbLine
 10
172.6927974580999
 20
195.5548262188999
 30
0.0
 11
174.1070163909999
 21
194.1406072858999
 31
0.0
  0
ARC
  5
2B6
330
2
100
AcDbEntity
  8
0
 62
     3
100
AcDbCircle
 10
178.3999396217
 20
177.8477269047999
 30
0.0
 40
2.000001668899999
100
AcDbArc
 50
270.0000179861
 51
0.0
  0
ARC
  5
2B7
330
2
100
AcDbEntity
  8
0
 62
     3
100
AcDbCircle
 10
178.3999396217
 20
177.8477269047999
 30
0.0
 40
1.000001206999999
100
AcDbArc
 50
270.0000179861
 51
0.0
  0
LINE
  5
2B8
330
2
100
AcDbEntity
  8
0
 62
     3
100
AcDbLine
 10
167.3998969425998
 20
201.3476984613
 30
0.0
 11
166.3998988312999
 21
208.3476873477999
 31
0.0
  0
LINE
  5
2B9
330
2
100
AcDbEntity
  8
0
 62
     3
100
AcDbLine
 10
166.3998871294999
 20
208.3476833333999
 30
0.0
 11
172.6058118519
 21
216.4555797103
 31
0.0
  0
CIRCLE
  5
2BA
330
2
100
AcDbEntity
  8
0
 62
     3
100
AcDbCircle
 10
163.8997984778999
 20
215.3479748601999
 30
0.0
 40
2.750033140199999
  0
ARC
  5
2BB
330
2
100
AcDbEntity
  8
0
 62
     3
100
AcDbCircle
 10
159.5845366370999
 20
219.3480282658999
 30
0.0
 40
1.500017643
100
AcDbArc
 50
89.99998201389999
 51
166.6074930278
  0
ARC
  5
2BC
330
2
100
AcDbEntity
  8
0
 62
     3
100
AcDbCircle
 10
153.3999586951999
 20
208.4477024907999
 30
0.0
 40
0.9999999404
100
AcDbArc
 50
89.99998201389999
 51
179.9999640277999
  0
LINE
  5
2BD
330
2
100
AcDbEntity
  8
0
 62
     3
100
AcDbLine
 10
153.3996789839
 20
199.8477709175999
 30
0.0
 11
158.1253178447999
 21
219.6954572954
 31
0.0
  0
LINE
  5
2BE
330
2
100
AcDbEntity
  8
0
 62
     3
100
AcDbLine
 10
151.1999464881999
 20
209.4477063054999
 30
0.0
 11
155.6856871497998
 21
209.4477063054999
 31
0.0
  0
LINE
  5
2BF
330
2
100
AcDbEntity
  8
0
 62
     3
100
AcDbLine
 10
152.3999548804999
 20
208.4477024907999
 30
0.0
 11
152.3999548804999
 21
203.4477024907999
 31
0.0
  0
ARC
  5
2C0
330
2
100
AcDbEntity
  8
0
 62
     3
100
AcDbCircle
 10
153.3999586951999
 20
203.4477024907999
 30
0.0
 40
0.9999999404
100
AcDbArc
 50
179.9999640277999
 51
270.0000006831999
  0
LINE
  5
2C1
330
2
100
AcDbEntity
  8
0
 62
     3
100
AcDbLine
 10
151.3999579323
 20
201.4477139348999
 30
0.0
 11
153.7809325110998
 21
201.4477139348999
 31
0.0
  0
LINE
  5
2C2
330
2
100
AcDbEntity
  8
0
 62
     3
100
AcDbLine
 10
151.1999464881999
 20
202.4477177495999
 30
0.0
 11
154.0190077674999
 21
202.4477177495999
 31
0.0
  0
LINE
  5
2C3
330
2
100
AcDbEntity
  8
0
 62
     3
100
AcDbLine
 10
151.3999579323
 20
220.1977139348999
 30
0.0
 11
158.2451964270999
 21
220.1977139348999
 31
0.0
  0
LINE
  5
2C4
330
2
100
AcDbEntity
  8
0
 62
     3
100
AcDbLine
 10
151.1999464881999
 20
219.1977101201999
 30
0.0
 11
158.0071020973
 21
219.1977101201999
 31
0.0
  0
LINE
  5
2C5
330
2
100
AcDbEntity
  8
0
 62
     3
100
AcDbLine
 10
151.3999579323
 20
210.4477101201999
 30
0.0
 11
155.9237814795999
 21
210.4477101201999
 31
0.0
  0
LINE
  5
2C6
330
2
100
AcDbEntity
  8
0
 62
     3
100
AcDbLine
 10
151.3999579323
 20
211.1977177495999
 30
0.0
 11
156.1023474585999
 21
211.1977177495999
 31
0.0
  0
LINE
  5
2C7
330
2
100
AcDbEntity
  8
0
 62
     3
100
AcDbLine
 10
151.1999464881999
 20
212.1977215642999
 30
0.0
 11
156.3404417884999
 21
212.1977215642999
 31
0.0
  0
LINE
  5
2C8
330
2
100
AcDbEntity
  8
0
 62
     3
100
AcDbLine
 10
152.3999548804999
 20
218.1977063054998
 30
0.0
 11
152.3999548804999
 21
213.1977063054999
 31
0.0
  0
ARC
  5
2C9
330
2
100
AcDbEntity
  8
0
 62
     3
100
AcDbCircle
 10
153.3999586951999
 20
213.1977063054999
 30
0.0
 40
0.9999999404
100
AcDbArc
 50
179.9999640277999
 51
270.0000006831999
  0
ARC
  5
2CA
330
2
100
AcDbEntity
  8
0
 62
     3
100
AcDbCircle
 10
153.3999586951999
 20
218.1977063054998
 30
0.0
 40
0.9999999404
100
AcDbArc
 50
89.99998201389999
 51
179.9999640277999
  0
LINE
  5
2CB
330
2
100
AcDbEntity
  8
0
 62
     3
100
AcDbLine
 10
165.3140510349
 20
216.7621894242
 30
0.0
 11
162.4855727079999
 21
213.9337110972999
 31
0.0
  0
LINE
  5
2CC
330
2
100
AcDbEntity
  8
0
 62
     3
100
AcDbLine
 10
163.1926821743999
 20
216.0550664707
 30
0.0
 11
164.6069145943999
 21
214.6408340507999
 31
0.0
  0
ARC
  5
2CD
330
2
100
AcDbEntity
  8
0
 62
     3
100
AcDbCircle
 10
173.3999014746999
 20
208.847749793
 30
0.0
 40
1.000001206999999
100
AcDbArc
 50
32.6834558012
 51
147.3165799436
  0
LINE
  5
2CE
330
2
100
AcDbEntity
  8
0
 62
     3
100
AcDbLine
 10
180.3999004679999
 20
208.3477023581999
 30
0.0
 11
174.1939824697999
 21
216.4555799376
 31
0.0
  0
LINE
  5
2CF
330
2
100
AcDbEntity
  8
0
 62
     3
100
AcDbLine
 10
172.8999281775999
 20
209.7137623662999
 30
0.0
 11
172.8999281775999
 21
201.8843441838998
 31
0.0
  0
LINE
  5
2D0
330
2
100
AcDbEntity
  8
0
 62
     3
100
AcDbLine
 10
173.8999319922999
 20
209.7137623662999
 30
0.0
 11
173.8999319922999
 21
201.8843441838998
 31
0.0
  0
LINE
  5
2D1
330
2
100
AcDbEntity
  8
0
 62
     3
100
AcDbLine
 10
167.3998952868999
 20
201.3476814789998
 30
0.0
 11
172.5582341914
 21
209.3877363412999
 31
0.0
  0
LINE
  5
2D2
330
2
100
AcDbEntity
  8
0
 62
     3
100
AcDbLine
 10
173.8999319922999
 20
201.8843441838998
 30
0.0
 11
172.8999281775999
 21
201.8843441838998
 31
0.0
  0
ARC
  5
2D3
330
2
100
AcDbEntity
  8
0
 62
     3
100
AcDbCircle
 10
173.3999014746999
 20
215.8477764959
 30
0.0
 40
1.000001206999999
100
AcDbArc
 50
39.47218913809999
 51
140.5277543991997
  0
LINE
  5
2D4
330
2
100
AcDbEntity
  8
0
 62
     3
100
AcDbLine
 10
179.3999079657999
 20
201.3477002012
 30
0.0
 11
174.2415742366
 21
209.3877361630999
 31
0.0
  0
LINE
  5
2D5
330
2
100
AcDbEntity
  8
0
 62
     3
100
AcDbLine
 10
179.3999223683
 20
201.3476950025
 30
0.0
 11
180.3999227554999
 21
208.3477027707999
 31
0.0
  0
LINE
  5
2D6
330
2
100
AcDbEntity
  8
0
 62
     3
100
AcDbLine
 10
193.4001494301
 20
199.8477726812
 30
0.0
 11
193.4001494301
 21
189.8476582403
 31
0.0
  0
LINE
  5
2D7
330
2
100
AcDbEntity
  8
0
 62
     3
100
AcDbLine
 10
194.3999434363999
 20
176.4477330083
 30
0.0
 11
194.3999434363999
 21
171.4477330083
 31
0.0
  0
LINE
  5
2D8
330
2
100
AcDbEntity
  8
0
 62
     3
100
AcDbLine
 10
196.5999365699999
 20
176.9477253788999
 30
0.0
 11
196.5999365699999
 21
170.9477406377
 31
0.0
  0
LINE
  5
2D9
330
2
100
AcDbEntity
  8
0
 62
     3
100
AcDbLine
 10
196.8999174964999
 20
176.9480496282
 30
0.0
 11
196.8999174964999
 21
170.9480648869999
 31
0.0
  0
LINE
  5
2DA
330
2
100
AcDbEntity
  8
0
 62
     3
100
AcDbLine
 10
182.1929127417
 20
173.6403670340999
 30
0.0
 11
183.6071586486999
 21
175.054612941
 31
0.0
  0
LINE
  5
2DB
330
2
100
AcDbEntity
  8
0
 62
     3
100
AcDbLine
 10
193.4001457815999
 20
189.8477038979
 30
0.0
 11
188.6744980849999
 21
169.9999804104999
 31
0.0
  0
LINE
  5
2DC
330
2
100
AcDbEntity
  8
0
 62
     3
100
AcDbLine
 10
188.4155351126999
 20
169.4477253789
 30
0.0
 11
195.3999213111997
 21
169.4477253789
 31
0.0
  0
LINE
  5
2DD
330
2
100
AcDbEntity
  8
0
 62
     3
100
AcDbLine
 10
188.7808943640999
 20
170.4477291935999
 30
0.0
 11
195.5999518286999
 21
170.4477291935999
 31
0.0
  0
ARC
  5
2DE
330
2
100
AcDbEntity
  8
0
 62
     3
100
AcDbCircle
 10
187.2152853859
 20
170.3474217289999
 30
0.0
 40
1.500017643
100
AcDbArc
 50
270.0000179861
 51
346.6075016791999
  0
ARC
  5
2DF
330
2
100
AcDbEntity
  8
0
 62
     3
100
AcDbCircle
 10
193.3999396216998
 20
171.4477330083
 30
0.0
 40
0.9999999404
100
AcDbArc
 50
270.0000179861
 51
0.0
  0
ARC
  5
2E0
330
2
100
AcDbEntity
  8
0
 62
     3
100
AcDbCircle
 10
195.0999403846998
 20
170.9477406377
 30
0.0
 40
1.499999761599999
100
AcDbArc
 50
270.0000179861
 51
0.0
  0
ARC
  5
2E1
330
2
100
AcDbEntity
  8
0
 62
     3
100
AcDbCircle
 10
195.3999213111997
 20
170.9480648869999
 30
0.0
 40
1.499999761599999
100
AcDbArc
 50
269.9999993168
 51
0.0000359722000187
  0
ARC
  5
2E2
330
2
100
AcDbEntity
  8
0
 62
     3
100
AcDbCircle
 10
195.5999518286999
 20
171.4477330083
 30
0.0
 40
0.9999999404
100
AcDbArc
 50
270.0000179861
 51
0.0
  0
LINE
  5
2E3
330
2
100
AcDbEntity
  8
0
 62
     3
100
AcDbLine
 10
196.5999937904
 20
180.6977063054999
 30
0.0
 11
196.5999937904
 21
186.6976910467
 31
0.0
  0
ARC
  5
2E4
330
2
100
AcDbEntity
  8
0
 62
     3
100
AcDbCircle
 10
195.5999899757
 20
186.1976986761
 30
0.0
 40
0.9999999404
100
AcDbArc
 50
0.0
 51
89.99998201389999
  0
ARC
  5
2E5
330
2
100
AcDbEntity
  8
0
 62
     3
100
AcDbCircle
 10
193.3999777686999
 20
186.1976986761
 30
0.0
 40
0.9999999404
100
AcDbArc
 50
0.0
 51
89.99998201389999
  0
LINE
  5
2E6
330
2
100
AcDbEntity
  8
0
 62
     3
100
AcDbLine
 10
196.8999174964999
 20
186.6980343694
 30
0.0
 11
196.8999174964999
 21
180.6980496281999
 31
0.0
  0
ARC
  5
2E7
330
2
100
AcDbEntity
  8
0
 62
     3
100
AcDbCircle
 10
193.3999396216998
 20
176.4477330083
 30
0.0
 40
0.9999999404
100
AcDbArc
 50
0.0
 51
89.99998201389999
  0
ARC
  5
2E8
330
2
100
AcDbEntity
  8
0
 62
     3
100
AcDbCircle
 10
193.3999777686999
 20
181.1976986760999
 30
0.0
 40
0.9999999404
100
AcDbArc
 50
270.0000179861
 51
0.0
  0
LINE
  5
2E9
330
2
100
AcDbEntity
  8
0
 62
     3
100
AcDbLine
 10
190.8642531287999
 20
179.1976910467
 30
0.0
 11
195.3999213111997
 21
179.1976910467
 31
0.0
  0
LINE
  5
2EA
330
2
100
AcDbEntity
  8
0
 62
     3
100
AcDbLine
 10
191.1023474585999
 20
180.1976948613999
 30
0.0
 11
195.5999899757
 21
180.1976948613999
 31
0.0
  0
LINE
  5
2EB
330
2
100
AcDbEntity
  8
0
 62
     3
100
AcDbLine
 10
190.6856299292998
 20
178.4477406377
 30
0.0
 11
195.3998831642
 21
178.4477406377
 31
0.0
  0
LINE
  5
2EC
330
2
100
AcDbEntity
  8
0
 62
     3
100
AcDbLine
 10
190.4475355994998
 20
177.4477368229999
 30
0.0
 11
195.5999518286999
 21
177.4477368229999
 31
0.0
  0
ARC
  5
2ED
330
2
100
AcDbEntity
  8
0
 62
     3
100
AcDbCircle
 10
195.5999899757
 20
181.1976986760999
 30
0.0
 40
0.9999999404
100
AcDbArc
 50
270.0000726275999
 51
0.0
  0
ARC
  5
2EE
330
2
100
AcDbEntity
  8
0
 62
     3
100
AcDbCircle
 10
195.0999403846998
 20
176.9477253788999
 30
0.0
 40
1.499999761599999
100
AcDbArc
 50
0.0
 51
89.99998201389999
  0
ARC
  5
2EF
330
2
100
AcDbEntity
  8
0
 62
     3
100
AcDbCircle
 10
195.3998831642
 20
176.9480305546999
 30
0.0
 40
1.499999761599999
100
AcDbArc
 50
0.000035972178686
 51
90.0000179861
  0
ARC
  5
2F0
330
2
100
AcDbEntity
  8
0
 62
     3
100
AcDbCircle
 10
195.0999785315999
 20
180.6977063054999
 30
0.0
 40
1.499999761599999
100
AcDbArc
 50
270.0000179861
 51
0.0
  0
ARC
  5
2F1
330
2
100
AcDbEntity
  8
0
 62
     3
100
AcDbCircle
 10
195.3999213111997
 20
180.6980496281999
 30
0.0
 40
1.499999761599999
100
AcDbArc
 50
269.9999993168
 51
0.0000359722000187
  0
ARC
  5
2F2
330
2
100
AcDbEntity
  8
0
 62
     3
100
AcDbCircle
 10
195.5999518286999
 20
176.4477330083
 30
0.0
 40
0.9999999404
100
AcDbArc
 50
0.0
 51
89.99998201389999
  0
LINE
  5
2F3
330
2
100
AcDbEntity
  8
0
 62
     3
100
AcDbLine
 10
194.4000006568999
 20
181.1976986760999
 30
0.0
 11
194.4000006568999
 21
186.1976986761
 31
0.0
  0
LINE
  5
2F4
330
2
100
AcDbEntity
  8
0
 62
     3
100
AcDbLine
 10
193.0071402442998
 20
188.1977063054999
 30
0.0
 11
195.3998831642
 21
188.1977063054999
 31
0.0
  0
LINE
  5
2F5
330
2
100
AcDbEntity
  8
0
 62
     3
100
AcDbLine
 10
192.7690268408999
 20
187.1977024907999
 30
0.0
 11
195.5999899757
 21
187.1977024907999
 31
0.0
  0
ARC
  5
2F6
330
2
100
AcDbEntity
  8
0
 62
     3
100
AcDbCircle
 10
195.0999403846998
 20
186.6976719731999
 30
0.0
 40
1.499999761599999
100
AcDbArc
 50
0.0
 51
89.99998201389999
  0
ARC
  5
2F7
330
2
100
AcDbEntity
  8
0
 62
     3
100
AcDbCircle
 10
195.3998831642
 20
186.6980152958999
 30
0.0
 40
1.499999761599999
100
AcDbArc
 50
0.000035972178686
 51
90.0000179861
  0
ARC
  5
2F8
330
2
100
AcDbEntity
  8
0
 62
     3
100
AcDbCircle
 10
187.2152853859
 20
219.3480282658999
 30
0.0
 40
1.500017643
100
AcDbArc
 50
13.39249832079999
 51
89.99998201389999
  0
LINE
  5
2F9
330
2
100
AcDbEntity
  8
0
 62
     3
100
AcDbLine
 10
188.6745147473
 20
219.6954515192
 30
0.0
 11
193.4001536082
 21
199.8477651414999
 31
0.0
  0
LINE
  5
2FA
330
2
100
AcDbEntity
  8
0
 62
     3
100
AcDbLine
 10
195.3999213111997
 20
220.2477436895
 30
0.0
 11
188.4155208151998
 21
220.2477436895
 31
0.0
  0
LINE
  5
2FB
330
2
100
AcDbEntity
  8
0
 62
     3
100
AcDbLine
 10
195.5999518286999
 20
219.2477398747998
 30
0.0
 11
188.7808943640999
 21
219.2477398747998
 31
0.0
  0
LINE
  5
2FC
330
2
100
AcDbEntity
  8
0
 62
     3
100
AcDbLine
 10
182.1929127417
 20
216.0550664707
 30
0.0
 11
183.6071451616999
 21
214.6408340507999
 31
0.0
  0
ARC
  5
2FD
330
2
100
AcDbEntity
  8
0
 62
     3
100
AcDbCircle
 10
195.0999403846998
 20
208.9477330083
 30
0.0
 40
1.499999761599999
100
AcDbArc
 50
0.0
 51
89.99998201389999
  0
ARC
  5
2FE
330
2
100
AcDbEntity
  8
0
 62
     3
100
AcDbCircle
 10
193.3999396216998
 20
208.4477215643
 30
0.0
 40
0.9999999404
100
AcDbArc
 50
0.0
 51
89.99998201389999
  0
ARC
  5
2FF
330
2
100
AcDbEntity
  8
0
 62
     3
100
AcDbCircle
 10
195.5999518286999
 20
208.4477215643
 30
0.0
 40
0.9999999404
100
AcDbArc
 50
0.0
 51
89.99998201389999
  0
ARC
  5
300
330
2
100
AcDbEntity
  8
0
 62
     3
100
AcDbCircle
 10
195.3999213111997
 20
208.9480381840999
 30
0.0
 40
1.499999761599999
100
AcDbArc
 50
0.000035972178686
 51
90.0000179861
  0
ARC
  5
301
330
2
100
AcDbEntity
  8
0
 62
     3
100
AcDbCircle
 10
193.3999396216998
 20
203.4477215642999
 30
0.0
 40
0.9999999404
100
AcDbArc
 50
270.0000179861
 51
0.0
  0
LINE
  5
302
330
2
100
AcDbEntity
  8
0
 62
     3
100
AcDbLine
 10
193.0189658057998
 20
201.4477330083
 30
0.0
 11
195.3999213111997
 21
201.4477330083
 31
0.0
  0
LINE
  5
303
330
2
100
AcDbEntity
  8
0
 62
     3
100
AcDbLine
 10
191.1142111670999
 20
209.4477253788999
 30
0.0
 11
195.5999518286999
 21
209.4477253788999
 31
0.0
  0
LINE
  5
304
330
2
100
AcDbEntity
  8
0
 62
     3
100
AcDbLine
 10
192.7808905494
 20
202.4477368229999
 30
0.0
 11
195.5999518286999
 21
202.4477368229999
 31
0.0
  0
LINE
  5
305
330
2
100
AcDbEntity
  8
0
 62
     3
100
AcDbLine
 10
194.3999434363999
 20
208.4477215643
 30
0.0
 11
194.3999434363999
 21
203.4477215642999
 31
0.0
  0
LINE
  5
306
330
2
100
AcDbEntity
  8
0
 62
     3
100
AcDbLine
 10
196.5999365699999
 20
208.9477330083
 30
0.0
 11
196.5999365699999
 21
202.9477291936
 31
0.0
  0
LINE
  5
307
330
2
100
AcDbEntity
  8
0
 62
     3
100
AcDbLine
 10
196.8999174964999
 20
208.9480381840999
 30
0.0
 11
196.8999174964999
 21
202.9480343693999
 31
0.0
  0
ARC
  5
308
330
2
100
AcDbEntity
  8
0
 62
     3
100
AcDbCircle
 10
195.0999403846998
 20
202.9477291936
 30
0.0
 40
1.499999761599999
100
AcDbArc
 50
270.0000179861
 51
0.0
  0
ARC
  5
309
330
2
100
AcDbEntity
  8
0
 62
     3
100
AcDbCircle
 10
195.3999213111997
 20
202.9480343693999
 30
0.0
 40
1.499999761599999
100
AcDbArc
 50
269.9999993168
 51
0.0000359722000187
  0
ARC
  5
30A
330
2
100
AcDbEntity
  8
0
 62
     3
100
AcDbCircle
 10
195.5999518286999
 20
203.4477215642999
 30
0.0
 40
0.9999999404
100
AcDbArc
 50
270.0000179861
 51
0.0
  0
ARC
  5
30B
330
2
100
AcDbEntity
  8
0
 62
     3
100
AcDbCircle
 10
193.3999205481999
 20
218.2477360600998
 30
0.0
 40
0.9999999404
100
AcDbArc
 50
0.0
 51
89.99998201389999
  0
ARC
  5
30C
330
2
100
AcDbEntity
  8
0
 62
     3
100
AcDbCircle
 10
193.3999205481999
 20
213.2477360600999
 30
0.0
 40
0.9999999404
100
AcDbArc
 50
270.0000726275999
 51
0.0
  0
LINE
  5
30D
330
2
100
AcDbEntity
  8
0
 62
     3
100
AcDbLine
 10
195.3999213111997
 20
211.2477284306998
 30
0.0
 11
190.6856299292998
 21
211.2477284306998
 31
0.0
  0
LINE
  5
30E
330
2
100
AcDbEntity
  8
0
 62
     3
100
AcDbLine
 10
190.8761168372999
 20
210.4477291936
 30
0.0
 11
195.3999213111997
 21
210.4477291936
 31
0.0
  0
LINE
  5
30F
330
2
100
AcDbEntity
  8
0
 62
     3
100
AcDbLine
 10
195.5999518286999
 20
212.2477322454
 30
0.0
 11
190.4475355994998
 21
212.2477322454
 31
0.0
  0
LINE
  5
310
330
2
100
AcDbEntity
  8
0
 62
     3
100
AcDbLine
 10
194.3999434363999
 20
218.2477169865999
 30
0.0
 11
194.3999434363999
 21
213.2477169865999
 31
0.0
  0
LINE
  5
311
330
2
100
AcDbEntity
  8
0
 62
     3
100
AcDbLine
 10
196.5999365699999
 20
218.7477093571999
 30
0.0
 11
196.5999365699999
 21
212.747724616
 31
0.0
  0
LINE
  5
312
330
2
100
AcDbEntity
  8
0
 62
     3
100
AcDbLine
 10
196.89993657
 20
218.7480336065
 30
0.0
 11
196.89993657
 21
212.7480488653
 31
0.0
  0
ARC
  5
313
330
2
100
AcDbEntity
  8
0
 62
     3
100
AcDbCircle
 10
195.0999213111999
 20
212.7477436895
 30
0.0
 40
1.499999761599999
100
AcDbArc
 50
270.0000726275999
 51
0.0
  0
ARC
  5
314
330
2
100
AcDbEntity
  8
0
 62
     3
100
AcDbCircle
 10
195.3999213111997
 20
212.7480679387999
 30
0.0
 40
1.499999761599999
100
AcDbArc
 50
270.0000726275999
 51
0.0
  0
ARC
  5
315
330
2
100
AcDbEntity
  8
0
 62
     3
100
AcDbCircle
 10
195.5999327552999
 20
213.2477360600999
 30
0.0
 40
0.9999999404
100
AcDbArc
 50
270.0000726275999
 51
0.0
  0
ARC
  5
316
330
2
100
AcDbEntity
  8
0
 62
     3
100
AcDbCircle
 10
195.0999213111999
 20
218.7477284307
 30
0.0
 40
1.499999761599999
100
AcDbArc
 50
0.0
 51
89.99998201389999
  0
ARC
  5
317
330
2
100
AcDbEntity
  8
0
 62
     3
100
AcDbCircle
 10
195.3999213111997
 20
218.7480526799999
 30
0.0
 40
1.499999761599999
100
AcDbArc
 50
0.0
 51
89.99998201389999
  0
ARC
  5
318
330
2
100
AcDbEntity
  8
0
 62
     3
100
AcDbCircle
 10
195.5999327552999
 20
218.2477360600998
 30
0.0
 40
0.9999999404
100
AcDbArc
 50
0.0
 51
89.99998201389999
  0
LINE
  5
31A
330
2
100
AcDbEntity
  8
0
100
AcDbLine
 10
210.0
 20
297.0
 30
0.0
 11
0.0
 21
297.0
 31
0.0
  0
TEXT
  5
32F
330
2
100
AcDbEntity
  8
0
 62
     7
100
AcDbText
 10
146.0
 20
85.00000295524989
 30
0.0
 40
2.999994089499998
  1
ACSNO-2####-Y2B
 11
146.0
 21
86.49999999999989
 31
0.0
100
AcDbText
 73
     2
  0
ENDSEC
  0
SECTION
  2
OBJECTS
  0
DICTIONARY
  5
7
330
0
100
AcDbDictionary
281
     1
  3
ACAD_GROUP
350
1F
  3
ACAD_LAYOUT
350
B
  3
ACAD_MLINESTYLE
350
20
  3
ACAD_PLOTSETTINGS
350
21
  3
ACAD_PLOTSTYLENAME
350
6
  3
AcDbVariableDictionary
350
330
  0
DICTIONARY
  5
1F
102
{ACAD_REACTORS
330
7
102
}
330
7
100
AcDbDictionary
281
     1
  0
DICTIONARY
  5
B
102
{ACAD_REACTORS
330
7
102
}
330
7
100
AcDbDictionary
281
     1
  3
Model
350
A
  3
ﾚｲｱｳﾄ1
350
F
  0
DICTIONARY
  5
20
102
{ACAD_REACTORS
330
7
102
}
330
7
100
AcDbDictionary
281
     1
  3
Standard
350
22
  0
DICTIONARY
  5
21
102
{ACAD_REACTORS
330
7
102
}
330
7
100
AcDbDictionary
281
     1
  0
ACDBDICTIONARYWDFLT
  5
6
102
{ACAD_REACTORS
330
7
102
}
330
7
100
AcDbDictionary
281
     1
  3
Normal
350
5
100
AcDbDictionaryWithDefault
340
5
  0
DICTIONARY
  5
330
102
{ACAD_REACTORS
330
7
102
}
330
7
100
AcDbDictionary
281
     1
  3
DIMASSOC
350
331
  0
LAYOUT
  5
A
102
{ACAD_REACTORS
330
B
102
}
330
B
100
AcDbPlotSettings
  1

  2
C:\Program Files\AutoCAD 2000i\plotters\DWF Classic.pc3
  4

  6

 40
0.0
 41
0.0
 42
0.0
 43
0.0
 44
0.0
 45
0.0
 46
0.0
 47
0.0
 48
0.0
 49
0.0
140
0.0
141
0.0
142
1.0
143
1.0
 70
  1712
 72
     0
 73
     0
 74
     0
  7

 75
     0
147
1.0
148
0.0
149
0.0
100
AcDbLayout
  1
Model
 70
     1
 71
     0
 10
0.0
 20
0.0
 11
12.0
 21
9.0
 12
0.0
 22
0.0
 32
0.0
 14
0.0
 24
0.0
 34
0.0
 15
0.0
 25
0.0
 35
0.0
146
0.0
 13
0.0
 23
0.0
 33
0.0
 16
1.0
 26
0.0
 36
0.0
 17
0.0
 27
1.0
 37
0.0
 76
     0
330
2
  0
LAYOUT
  5
F
102
{ACAD_REACTORS
330
B
102
}
330
B
100
AcDbPlotSettings
  1

  2
C:\Program Files\AutoCAD 2000i\plotters\DWF Classic.pc3
  4

  6

 40
0.0
 41
0.0
 42
0.0
 43
0.0
 44
0.0
 45
0.0
 46
0.0
 47
0.0
 48
0.0
 49
0.0
140
0.0
141
0.0
142
1.0
143
1.0
 70
   688
 72
     0
 73
     0
 74
     5
  7

 75
    16
147
1.0
148
0.0
149
0.0
100
AcDbLayout
  1
ﾚｲｱｳﾄ1
 70
     1
 71
     1
 10
0.0
 20
0.0
 11
12.0
 21
9.0
 12
0.0
 22
0.0
 32
0.0
 14
1.000000000000000E+20
 24
1.000000000000000E+20
 34
1.000000000000000E+20
 15
-1.000000000000000E+20
 25
-1.000000000000000E+20
 35
-1.000000000000000E+20
146
0.0
 13
0.0
 23
0.0
 33
0.0
 16
1.0
 26
0.0
 36
0.0
 17
0.0
 27
1.0
 37
0.0
 76
     0
330
C
  0
MLINESTYLE
  5
22
102
{ACAD_REACTORS
330
20
102
}
330
20
100
AcDbMlineStyle
  2
STANDARD
 70
     0
  3

 62
   256
 51
90.0
 52
90.0
 71
     2
 49
0.5
 62
   256
  6
BYLAYER
 49
-0.5
 62
   256
  6
BYLAYER
  0
ACDBPLACEHOLDER
  5
5
102
{ACAD_REACTORS
330
6
102
}
330
6
  0
DICTIONARYVAR
  5
331
102
{ACAD_REACTORS
330
330
102
}
330
330
100
DictionaryVariables
280
     0
  1
1
  0
ENDSEC
  0
EOF
