  0
SECTION
  2
HEADER
  9
$ACADVER
  1
AC1004
  9
$ANGBASE
 50
0.0000000000
  9
$ANGDIR
 70
     0
  9
$ATTDIA
 70
     0
  9
$ATTMODE
 70
     1
  9
$ATTREQ
 70
     1
  9
$AUNITS
 70
     0
  9
$AUPREC
 70
     0
  9
$AXISMODE
 70
     0
  9
$AXISUNIT
 10
0.0000000000
 20
0.0000000000
  9
$BLIPMODE
 70
     1
  9
$CECOLOR
 62
   256
  9
$CELTYPE
  6
BYLAYER
  9
$CHAMFERA
 40
0.0000000000
  9
$CHAMFERB
 40
0.0000000000
  9
$CLAYER
  8
0
  9
$COORDS
 70
     0
  9
$DIMALT
 70
     0
  9
$DIMALTD
 70
     2
  9
$DIMALTF
 40
25.4000000000
  9
$DIMAPOST
  1

  9
$DIMASO
 70
     1
  9
$DIMASZ
 40
1.9727878447
  9
$DIMBLK
  1

  9
$DIMBLK1
  1

  9
$DIMBLK2
  1

  9
$DIMCEN
 40
9.0000000000E-02
  9
$DIMDLE
 40
0.0000000000
  9
$DIMDLI
 40
0.3800000000
  9
$DIMEXE
 40
3.8099999428
  9
$DIMEXO
 40
2.5399999619
  9
$DIMLFAC
 40
1.0000000000
  9
$DIMLIM
 70
     0
  9
$DIMPOST
  1

  9
$DIMRND
 40
0.0000000000
  9
$DIMSCALE
 40
1.0000000000
  9
$DIMSE1
 70
     0
  9
$DIMSE2
 70
     0
  9
$DIMSHO
 70
     0
  9
$DIMTAD
 70
     0
  9
$DIMTIH
 70
     0
  9
$DIMTM
 40
0.0000000000
  9
$DIMTOH
 70
     1
  9
$DIMTOL
 70
     0
  9
$DIMTP
 40
0.0000000000
  9
$DIMTSZ
 40
0.0000000000
  9
$DIMTXT
 40
2.9999940395
  9
$DIMZIN
 70
     0
  9
$DRAGMODE
 70
     1
  9
$ELEVATION
 40
0.0000000000
  9
$EXTMAX
 10
213.1750000000
 20
300.1750000000
 30
0.0000000000
  9
$EXTMIN
 10
-3.1750000000
 20
-3.1750000000
 30
0.0000000000
  9
$FASTZOOM
 70
     1
  9
$FILLETRAD
 40
6.2500000000E-02
  9
$FILLMODE
 70
     1
  9
$GRIDMODE
 70
     0
  9
$GRIDUNIT
 10
0.0000000000
 20
0.0000000000
  9
$INSBASE
 10
0.0000000000
 20
0.0000000000
 30
0.0000000000
  9
$LIMCHECK
 70
     0
  9
$LIMMAX
 10
213.1750000000
 20
300.1750000000
  9
$LIMMIN
 10
-3.1750000000
 20
-3.1750000000
  9
$LTSCALE
 40
1.0000000000
  9
$LUNITS
 70
     2
  9
$LUPREC
 70
     3
  9
$MEASUREMENT
 70
     0
  9
$MENU
  1
ACAD
  9
$MIRRTEXT
 70
     0
  9
$ORTHOMODE
 70
     0
  9
$OSMODE
 70
     0
  9
$PDMODE
 70
     0
  9
$PDSIZE
 40
0.0000000000
  9
$PLINEWID
 40
0.0000000000
  9
$PROXYGRAPHICS
 70
     0
  9
$QTEXTMODE
 70
     0
  9
$REGENMODE
 70
     1
  9
$SKETCHINC
 40
0.1000000000
  9
$SKPOLY
 70
     0
  9
$SNAPANG
 50
0.0000000000
  9
$SNAPBASE
 10
0.0000000000
 20
0.0000000000
  9
$SNAPISOPAIR
 70
     0
  9
$SNAPMODE
 70
     0
  9
$SNAPSTYLE
 70
     0
  9
$SNAPUNIT
 10
1.0000000000
 20
1.0000000000
  9
$SPLFRAME
 70
     0
  9
$SPLINESEGS
 70
     8
  9
$TDCREATE
 40
2453364.4730324124
  9
$TDINDWG
 40
0.0000000000
  9
$TDUPDATE
 40
2453364.4730324124
  9
$TDUSRTIMER
 40
0.0000000000
  9
$TEXTSIZE
 40
2.9999940395
  9
$TEXTSTYLE
  7
STANDARD
  9
$THICKNESS
 40
0.0000000000
  9
$TRACEWID
 40
5.0000000000E-02
  9
$USERI1
 70
     0
  9
$USERI2
 70
     0
  9
$USERI3
 70
     0
  9
$USERI4
 70
     0
  9
$USERI5
 70
     0
  9
$USERR1
 40
0.0000000000
  9
$USERR2
 40
0.0000000000
  9
$USERR3
 40
0.0000000000
  9
$USERR4
 40
0.0000000000
  9
$USERR5
 40
0.0000000000
  9
$USRTIMER
 70
     1
  9
$VIEWCTR
 10
105.0000000000
 20
148.5000000000
  9
$VIEWDIR
 10
0.0000000000
 20
0.0000000000
 30
1.0000000000
  9
$VIEWSIZE
 40
303.3500000000
  0
ENDSEC
  0
SECTION
  2
TABLES
  0
TABLE
  2
LTYPE
 70
     3
  0
LTYPE
  2
SOLID
  3
Solid
 70
    64
 72
    65
 73
     0
 40
0.0000000000
  0
LTYPE
  2
PHANTOM
  3
Phantom
 70
    64
 72
    65
 73
     6
 40
30.1625000000
 49
19.0500000000
 49
-1.5875000000
 49
3.1750000000
 49
-1.5875000000
 49
3.1750000000
 49
-1.5875000000
  0
LTYPE
  2
CENTER
  3
Center
 70
    64
 72
    65
 73
     4
 40
9.1000067592
 49
6.5000119209
 49
-0.7999984026
 49
0.9999980330
 49
-0.7999984026
  0
ENDTAB
  0
TABLE
  2
LAYER
 70
     1
  0
LAYER
  2
Layer0$C$L0
 70
     0
  6
SOLID
 62
   192
  0
ENDTAB
  0
TABLE
  2
STYLE
 70
     1
  0
STYLE
  2
STANDARD
  3
txt
  4

 40
0.0000000000
 41
1.0000000000
 42
2.9999940395
 50
0.0000000000
 70
     0
 71
     0
  0
ENDTAB
  0
ENDSEC
  0
SECTION
  2
BLOCKS
  0
ENDSEC
  0
SECTION
  2
ENTITIES
  0
LINE
  8
Layer0$C$L0
 62
     3
 10
63.0117135687
 20
155.1999706427
 11
63.0117135687
 21
181.7999915773
  0
ARC
  8
Layer0$C$L0
 62
     3
 10
80.6117196722
 20
152.9622192383
 40
0.5000000000
 50
296.0000346467
 51
360.0000000000
  0
ARC
  8
Layer0$C$L0
 62
     3
 10
73.6352792425
 20
152.8973999023
 40
1.2999992371
 50
296.0000346467
 51
383.8762376401
  0
LINE
  8
Layer0$C$L0
 62
     3
 10
71.0287802596
 20
151.6261156779
 11
68.3985535283
 21
157.0188800078
  0
LINE
  8
Layer0$C$L0
 62
     3
 10
72.1073303827
 20
152.1521596864
 11
69.4771036514
 21
157.5449240163
  0
LINE
  8
Layer0$C$L0
 62
     3
 10
80.5154810898
 20
152.6927827426
 11
71.3983910097
 21
148.2460810932
  0
ARC
  8
Layer0$C$L0
 62
     3
 10
73.6352792425
 20
152.8973999023
 40
1.0000000000
 50
296.0000346467
 51
385.9999961701
  0
LINE
  8
Layer0$C$L0
 62
     3
 10
74.0736349407
 20
151.9985885118
 11
73.4444955596
 21
151.6917367533
  0
LINE
  8
Layer0$C$L0
 62
     3
 10
74.2051409260
 20
151.7289612669
 11
73.5760015449
 21
151.4221095084
  0
LINE
  8
Layer0$C$L0
 62
     3
 10
80.8308983030
 20
152.5128210370
 11
71.1681764865
 21
147.7999970261
  0
ARC
  8
Layer0$C$L0
 62
     3
 10
73.0061288519
 20
152.5905456543
 40
1.0000000000
 50
205.9999979913
 51
296.0000346467
  0
ARC
  8
Layer0$C$L0
 62
     3
 10
73.0061288519
 20
152.5905456543
 40
1.2999992371
 50
209.3008371719
 51
296.0000346467
  0
LINE
  8
Layer0$C$L0
 62
     3
 10
72.1073303827
 20
152.1521596864
 11
71.0287802596
 21
151.6261156779
  0
LINE
  8
Layer0$C$L0
 62
     3
 10
75.6788278265
 20
150.0000000000
 11
83.0117135687
 21
150.0000000000
  0
LINE
  8
Layer0$C$L0
 62
     3
 10
74.0736145161
 20
185.0013751815
 11
73.4444751350
 21
185.3082269400
  0
LINE
  8
Layer0$C$L0
 62
     3
 10
71.6117196722
 20
161.2999877930
 11
80.7117257758
 21
161.2999877930
  0
LINE
  8
Layer0$C$L0
 62
     3
 10
71.8117318793
 20
161.5000000000
 11
80.5117135687
 21
161.5000000000
  0
LINE
  8
Layer0$C$L0
 62
     3
 10
71.8117318793
 20
164.5000000000
 11
80.5117135687
 21
164.5000000000
  0
LINE
  8
Layer0$C$L0
 62
     3
 10
71.6117196722
 20
164.6999816895
 11
80.7117257758
 21
164.6999816895
  0
LINE
  8
Layer0$C$L0
 62
     3
 10
71.8117318793
 20
172.4999694824
 11
80.5117135687
 21
172.4999694824
  0
LINE
  8
Layer0$C$L0
 62
     3
 10
71.6117196722
 20
172.2999877930
 11
80.7117257758
 21
172.2999877930
  0
LINE
  8
Layer0$C$L0
 62
     3
 10
71.6117196722
 20
175.6999816895
 11
80.7117257758
 21
175.6999816895
  0
LINE
  8
Layer0$C$L0
 62
     3
 10
71.8117318793
 20
175.4999694824
 11
80.5117135687
 21
175.4999694824
  0
LINE
  8
Layer0$C$L0
 62
     3
 10
75.6126079969
 20
153.8617976971
 11
72.9823812656
 21
159.2545620270
  0
LINE
  8
Layer0$C$L0
 62
     3
 10
75.6126012868
 20
183.1381593072
 11
72.9823779000
 21
177.7454018345
  0
LINE
  8
Layer0$C$L0
 62
     3
 10
74.2051271905
 20
185.2710161409
 11
73.5759878094
 21
185.5778678994
  0
LINE
  8
Layer0$C$L0
 62
     3
 10
80.5154673543
 20
184.3071946653
 11
71.3431215178
 21
188.7808463459
  0
LINE
  8
Layer0$C$L0
 62
     3
 10
74.5340374492
 20
183.6642100047
 11
71.9038140624
 21
178.2714525320
  0
LINE
  8
Layer0$C$L0
 62
     3
 10
74.5340578738
 20
153.3357536886
 11
71.9038311425
 21
158.7285180185
  0
LINE
  8
Layer0$C$L0
 62
     3
 10
74.5340648782
 20
183.6641966266
 11
71.9038414914
 21
178.2714391540
  0
LINE
  8
Layer0$C$L0
 62
     3
 10
74.6173070663
 20
184.2911306920
 11
71.4610530491
 21
177.8198505253
  0
LINE
  8
Layer0$C$L0
 62
     3
 10
80.8308915930
 20
184.4871359673
 11
71.1681423474
 21
189.1999733562
  0
LINE
  8
Layer0$C$L0
 62
     3
 10
71.8117369420
 20
175.4999822900
 11
71.6117410455
 21
175.6999781865
  0
LINE
  8
Layer0$C$L0
 62
     3
 10
71.6117196722
 20
175.6999816895
 11
71.6117196722
 21
172.2999877930
  0
LINE
  8
Layer0$C$L0
 62
     3
 10
71.6117196722
 20
161.2999877930
 11
71.6117196722
 21
164.6999816895
  0
LINE
  8
Layer0$C$L0
 62
     3
 10
71.8117318793
 20
161.5000000000
 11
71.8117318793
 21
164.5000000000
  0
LINE
  8
Layer0$C$L0
 62
     3
 10
70.5666659656
 20
159.1889409516
 11
69.9375265845
 21
158.8820891931
  0
LINE
  8
Layer0$C$L0
 62
     3
 10
70.4351466022
 20
159.4585956255
 11
69.8060072211
 21
159.1517438670
  0
ARC
  8
Layer0$C$L0
 62
     3
 10
70.3758798285
 20
157.9833068848
 40
1.0000000000
 50
115.9999986745
 51
205.9999806884
  0
ARC
  8
Layer0$C$L0
 62
     3
 10
70.3758798285
 20
157.9833068848
 40
1.2999992371
 50
115.9999986745
 51
202.6991415079
  0
LINE
  8
Layer0$C$L0
 62
     3
 10
69.4771036514
 20
157.5449240163
 11
68.3985535283
 21
157.0188800078
  0
LINE
  8
Layer0$C$L0
 62
     3
 10
72.9823812656
 20
159.2545620270
 11
71.9038311425
 21
158.7285180185
  0
ARC
  8
Layer0$C$L0
 62
     3
 10
71.0050607367
 20
158.2901611328
 40
1.2999992371
 50
28.1237615302
 51
115.9999986745
  0
LINE
  8
Layer0$C$L0
 62
     3
 10
71.8117477316
 20
161.4999782174
 11
71.6117410455
 21
161.2999715313
  0
ARC
  8
Layer0$C$L0
 62
     3
 10
71.0050607367
 20
158.2901611328
 40
1.0000000000
 50
25.9999961701
 51
115.9999986745
  0
LINE
  8
Layer0$C$L0
 62
     3
 10
71.8117261524
 20
164.4999814021
 11
71.6117302560
 21
164.6999772986
  0
LINE
  8
Layer0$C$L0
 62
     3
 10
71.8117261524
 20
172.4999898949
 11
71.6117302560
 21
172.2999939984
  0
LINE
  8
Layer0$C$L0
 62
     3
 10
71.8117318793
 20
175.4999694824
 11
71.8117318793
 21
172.4999694824
  0
LINE
  8
Layer0$C$L0
 62
     3
 10
70.5666488856
 20
177.8110295989
 11
69.9375095045
 21
178.1178813574
  0
LINE
  8
Layer0$C$L0
 62
     3
 10
70.4351362112
 20
177.5413886395
 11
69.8059968301
 21
177.8482403980
  0
LINE
  8
Layer0$C$L0
 62
     3
 10
71.0287461206
 20
185.3738547044
 11
68.3985227338
 21
179.9810972318
  0
LINE
  8
Layer0$C$L0
 62
     3
 10
72.1073099582
 20
184.8478040069
 11
69.4770865714
 21
179.4550465343
  0
LINE
  8
Layer0$C$L0
 62
     3
 10
69.4770865714
 20
179.4550465343
 11
68.3985227338
 21
179.9810972318
  0
ARC
  8
Layer0$C$L0
 62
     3
 10
70.3758798285
 20
179.0166931152
 40
1.0000000000
 50
154.0000020087
 51
243.9999840226
  0
ARC
  8
Layer0$C$L0
 62
     3
 10
70.3758798285
 20
179.0166931152
 40
1.2999992371
 50
157.3007865478
 51
243.9999840226
  0
LINE
  8
Layer0$C$L0
 62
     3
 10
72.9823779000
 20
177.7454018345
 11
71.9038140624
 21
178.2714525320
  0
ARC
  8
Layer0$C$L0
 62
     3
 10
71.0050607367
 20
178.7098083496
 40
1.2999992371
 50
244.0000013255
 51
331.8762350547
  0
ARC
  8
Layer0$C$L0
 62
     3
 10
71.0050607367
 20
178.7098083496
 40
1.0000000000
 50
244.0000013255
 51
334.0000004148
  0
ARC
  8
Layer0$C$L0
 62
     3
 10
73.0061288519
 20
184.4094543457
 40
1.0000000000
 50
63.9999653533
 51
154.0000020087
  0
ARC
  8
Layer0$C$L0
 62
     3
 10
73.0061288519
 20
184.4094543457
 40
1.2999992371
 50
63.9999653533
 51
150.6991628281
  0
LINE
  8
Layer0$C$L0
 62
     3
 10
72.1073099582
 20
184.8478040069
 11
71.0287461206
 21
185.3738547044
  0
LINE
  8
Layer0$C$L0
 62
     3
 10
80.5117310724
 20
175.4999822900
 11
80.7117269689
 21
175.6999781865
  0
LINE
  8
Layer0$C$L0
 62
     3
 10
80.7117257758
 20
175.6999816895
 11
80.7117257758
 21
172.2999877930
  0
LINE
  8
Layer0$C$L0
 62
     3
 10
80.5117135687
 20
161.5000000000
 11
80.5117135687
 21
164.5000000000
  0
LINE
  8
Layer0$C$L0
 62
     3
 10
80.7117257758
 20
161.2999877930
 11
80.7117257758
 21
164.6999816895
  0
LINE
  8
Layer0$C$L0
 62
     3
 10
75.6126079969
 20
153.8617976971
 11
74.5340578738
 21
153.3357536886
  0
LINE
  8
Layer0$C$L0
 62
     3
 10
80.8117318793
 20
153.2226867676
 11
80.8117318793
 21
154.5733032227
  0
LINE
  8
Layer0$C$L0
 62
     3
 10
80.5117418620
 20
161.4999782174
 11
80.7117377585
 21
161.2999823209
  0
LINE
  8
Layer0$C$L0
 62
     3
 10
80.7117269689
 20
164.6999880882
 11
80.5117310724
 21
164.4999921917
  0
LINE
  8
Layer0$C$L0
 62
     3
 10
80.7117377585
 20
172.2999724192
 11
80.5117418620
 21
172.4999683157
  0
LINE
  8
Layer0$C$L0
 62
     3
 10
80.5117135687
 20
175.4999694824
 11
80.5117135687
 21
172.4999694824
  0
LINE
  8
Layer0$C$L0
 62
     3
 10
82.7308916350
 20
155.3630329425
 11
81.1117018567
 21
154.5733013731
  0
LINE
  8
Layer0$C$L0
 62
     3
 10
81.1117196722
 20
152.9622192383
 11
81.1117196722
 21
154.5733032227
  0
LINE
  8
Layer0$C$L0
 62
     3
 10
82.5119967989
 20
155.5900377999
 11
80.9299184818
 21
154.8184066982
  0
ARC
  8
Layer0$C$L0
 62
     3
 10
80.6117196722
 20
184.0377502441
 40
0.5000000000
 50
0.0000000000
 51
63.9999653533
  0
LINE
  8
Layer0$C$L0
 62
     3
 10
75.6788278265
 20
186.9999694824
 11
83.0117135687
 21
186.9999694824
  0
LINE
  8
Layer0$C$L0
 62
     3
 10
75.6126012868
 20
183.1381593072
 11
74.5340374492
 21
183.6642100047
  0
ARC
  8
Layer0$C$L0
 62
     3
 10
73.6352792425
 20
184.1025695801
 40
1.2999992371
 50
336.1237657750
 51
423.9999653533
  0
ARC
  8
Layer0$C$L0
 62
     3
 10
73.6352792425
 20
184.1025695801
 40
1.0000000000
 50
334.0000004148
 51
423.9999653533
  0
LINE
  8
Layer0$C$L0
 62
     3
 10
80.8117318793
 20
183.7772521973
 11
80.8117318793
 21
182.4266662598
  0
LINE
  8
Layer0$C$L0
 62
     3
 10
82.7308916139
 20
181.6369377763
 11
81.1117018357
 21
182.4266693457
  0
LINE
  8
Layer0$C$L0
 62
     3
 10
81.1117196722
 20
184.0377502441
 11
81.1117196722
 21
182.4266662598
  0
LINE
  8
Layer0$C$L0
 62
     3
 10
82.5119900889
 20
181.4099192044
 11
80.9299117717
 21
182.1815503061
  0
LINE
  8
Layer0$C$L0
 62
     3
 10
75.1433816595
 20
245.5262908936
 11
75.1433816595
 21
238.5430450439
  0
LINE
  8
Layer0$C$L0
 62
     3
 10
71.5111489935
 20
246.0999298096
 11
71.5111489935
 21
237.8999481201
  0
LINE
  8
Layer0$C$L0
 62
     3
 10
80.6117349310
 20
245.7192230225
 11
80.6117349310
 21
238.3009185791
  0
LINE
  8
Layer0$C$L0
 62
     3
 10
81.1117349310
 20
247.1999359131
 11
81.1117349310
 21
237.8999481201
  0
LINE
  8
Layer0$C$L0
 62
     3
 10
77.0203347845
 20
246.0999298096
 11
77.0203347845
 21
237.8999481201
  0
LINE
  8
Layer0$C$L0
 62
     3
 10
75.8257241888
 20
246.0999298096
 11
75.8257241888
 21
237.8999481201
  0
LINE
  8
Layer0$C$L0
 62
     3
 10
75.7045694037
 20
246.0999298096
 11
75.7045694037
 21
237.8999481201
  0
LINE
  8
Layer0$C$L0
 62
     3
 10
70.2117105170
 20
246.0999298096
 11
70.2117105170
 21
237.8999481201
  0
LINE
  8
Layer0$C$L0
 62
     3
 10
69.9117227240
 20
246.0999298096
 11
69.9117227240
 21
237.8999481201
  0
LINE
  8
Layer0$C$L0
 62
     3
 10
71.2303262396
 20
245.7316436768
 11
71.2303262396
 21
238.2357025146
  0
LINE
  8
Layer0$C$L0
 62
     3
 10
82.5961404486
 20
218.0999298096
 11
66.2671304388
 21
218.0999298096
  0
LINE
  8
Layer0$C$L0
 62
     3
 10
83.0117288275
 20
227.0999298096
 11
69.9117227240
 21
227.0999298096
  0
LINE
  8
Layer0$C$L0
 62
     3
 10
81.1117349310
 20
218.8999481201
 11
69.9117227240
 21
218.8999481201
  0
LINE
  8
Layer0$C$L0
 62
     3
 10
71.5111489935
 20
218.9999237061
 11
75.7045694037
 21
218.9999237061
  0
LINE
  8
Layer0$C$L0
 62
     3
 10
72.2062783881
 20
219.1999359131
 11
74.5911660834
 21
219.1999359131
  0
LINE
  8
Layer0$C$L0
 62
     3
 10
72.2062783881
 20
226.7999420166
 11
74.5911660834
 21
226.7999420166
  0
LINE
  8
Layer0$C$L0
 62
     3
 10
83.0117288275
 20
237.8999481201
 11
69.9117227240
 21
237.8999481201
  0
LINE
  8
Layer0$C$L0
 62
     3
 10
72.2062783881
 20
238.1999359131
 11
74.5911660834
 21
238.1999359131
  0
LINE
  8
Layer0$C$L0
 62
     3
 10
72.5882746749
 20
221.5841439659
 11
72.7271662746
 21
221.4012191552
  0
LINE
  8
Layer0$C$L0
 62
     3
 10
73.3512230210
 20
221.4012191552
 11
73.4901146207
 21
221.5841439659
  0
LINE
  8
Layer0$C$L0
 62
     3
 10
71.5113780860
 20
221.4541341807
 11
71.6272055971
 21
221.6265616206
  0
LINE
  8
Layer0$C$L0
 62
     3
 10
71.2303262396
 20
219.2682342529
 11
71.2303262396
 21
226.7641754150
  0
LINE
  8
Layer0$C$L0
 62
     3
 10
71.5111489935
 20
218.8999481201
 11
71.5111489935
 21
227.0999298096
  0
LINE
  8
Layer0$C$L0
 62
     3
 10
70.2117105170
 20
218.8999481201
 11
70.2117105170
 21
227.0999298096
  0
LINE
  8
Layer0$C$L0
 62
     3
 10
69.9117227240
 20
218.8999481201
 11
69.9117227240
 21
227.0999298096
  0
LINE
  8
Layer0$C$L0
 62
     3
 10
71.1681619330
 20
217.7999420166
 11
71.1681619330
 21
218.8999481201
  0
LINE
  8
Layer0$C$L0
 62
     3
 10
72.9253335638
 20
219.1999359131
 11
72.9253335638
 21
218.9999237061
  0
LINE
  8
Layer0$C$L0
 62
     3
 10
72.8796950115
 20
221.2881654048
 11
73.0391946478
 21
221.2499237061
  0
LINE
  8
Layer0$C$L0
 62
     3
 10
73.0391946478
 20
221.2499237061
 11
73.1986942842
 21
221.2881654048
  0
LINE
  8
Layer0$C$L0
 62
     3
 10
72.2062783881
 20
218.9999237061
 11
72.2062783881
 21
219.1999359131
  0
LINE
  8
Layer0$C$L0
 62
     3
 10
72.7271662746
 20
221.4012191552
 11
72.8796950115
 21
221.2881654048
  0
LINE
  8
Layer0$C$L0
 62
     3
 10
73.1986942842
 20
221.2881654048
 11
73.3512230210
 21
221.4012191552
  0
LINE
  8
Layer0$C$L0
 62
     3
 10
71.1681619330
 20
227.0999298096
 11
71.1681619330
 21
228.2999420166
  0
LINE
  8
Layer0$C$L0
 62
     3
 10
71.5111489935
 20
226.9999237061
 11
72.9253335638
 21
226.9999237061
  0
LINE
  8
Layer0$C$L0
 62
     3
 10
71.5112824754
 20
222.1061697123
 11
71.5577650416
 21
222.3154662494
  0
LINE
  8
Layer0$C$L0
 62
     3
 10
71.5577650416
 20
222.3154662494
 11
71.5915565579
 21
222.5370658930
  0
LINE
  8
Layer0$C$L0
 62
     3
 10
71.5915565579
 20
222.5370658930
 11
71.6120496226
 21
222.7669853947
  0
LINE
  8
Layer0$C$L0
 62
     3
 10
71.6120496226
 20
222.7669853947
 11
71.6188758734
 21
223.0010919570
  0
LINE
  8
Layer0$C$L0
 62
     3
 10
71.6188758734
 20
223.0010919570
 11
71.6119126085
 21
223.2351775200
  0
LINE
  8
Layer0$C$L0
 62
     3
 10
71.6119126085
 20
223.2351775200
 11
71.5912849926
 21
223.4650344013
  0
LINE
  8
Layer0$C$L0
 62
     3
 10
71.5912849926
 20
223.4650344013
 11
71.5573638065
 21
223.6865309290
  0
LINE
  8
Layer0$C$L0
 62
     3
 10
71.5573638065
 20
223.6865309290
 11
71.5107587827
 21
223.8956857083
  0
LINE
  8
Layer0$C$L0
 62
     3
 10
71.6272055971
 20
221.6265616206
 11
71.7275785336
 21
221.8436292660
  0
LINE
  8
Layer0$C$L0
 62
     3
 10
71.7275785336
 20
221.8436292660
 11
71.8092343411
 21
222.0982814799
  0
LINE
  8
Layer0$C$L0
 62
     3
 10
71.8092343411
 20
222.0982814799
 11
71.8695188528
 21
222.3822409644
  0
LINE
  8
Layer0$C$L0
 62
     3
 10
71.8695188528
 20
222.3822409644
 11
71.9064725615
 21
222.6862778086
  0
LINE
  8
Layer0$C$L0
 62
     3
 10
71.9064725615
 20
222.6862778086
 11
71.9188943119
 21
223.0005095005
  0
LINE
  8
Layer0$C$L0
 62
     3
 10
71.9188943119
 20
223.0005095005
 11
71.9063803433
 21
223.3147221515
  0
LINE
  8
Layer0$C$L0
 62
     3
 10
71.9063803433
 20
223.3147221515
 11
71.8693374139
 21
223.6187024920
  0
LINE
  8
Layer0$C$L0
 62
     3
 10
71.8693374139
 20
223.6187024920
 11
71.8089695789
 21
223.9025698467
  0
LINE
  8
Layer0$C$L0
 62
     3
 10
71.8089695789
 20
223.9025698467
 11
71.7272390542
 21
224.1570972993
  0
LINE
  8
Layer0$C$L0
 62
     3
 10
71.7272390542
 20
224.1570972993
 11
71.6268024349
 21
224.3740116070
  0
LINE
  8
Layer0$C$L0
 62
     3
 10
71.6268024349
 20
224.3740116070
 11
71.5109243456
 21
224.5462621171
  0
LINE
  8
Layer0$C$L0
 62
     3
 10
72.9253335638
 20
226.7999420166
 11
72.9253335638
 21
226.9999237061
  0
LINE
  8
Layer0$C$L0
 62
     3
 10
73.0391946478
 20
224.7499237061
 11
72.8796950115
 21
224.7116820073
  0
LINE
  8
Layer0$C$L0
 62
     3
 10
72.8796950115
 20
224.7116820073
 11
72.7271662746
 21
224.5986282569
  0
LINE
  8
Layer0$C$L0
 62
     3
 10
72.7271662746
 20
224.5986282569
 11
72.5882746749
 21
224.4157034462
  0
LINE
  8
Layer0$C$L0
 62
     3
 10
72.5882746749
 20
224.4157034462
 11
72.4690904418
 21
224.1709022672
  0
LINE
  8
Layer0$C$L0
 62
     3
 10
72.4690904418
 20
221.8289451449
 11
72.5882746749
 21
221.5841439659
  0
LINE
  8
Layer0$C$L0
 62
     3
 10
73.4901146207
 20
221.5841439659
 11
73.6092988538
 21
221.8289451449
  0
LINE
  8
Layer0$C$L0
 62
     3
 10
73.6092988538
 20
221.8289451449
 11
73.7035667975
 21
222.1249237061
  0
LINE
  8
Layer0$C$L0
 62
     3
 10
73.7035667975
 20
222.1249237061
 11
73.7687984902
 21
222.4591439659
  0
LINE
  8
Layer0$C$L0
 62
     3
 10
73.7687984902
 20
222.4591439659
 11
73.8021429939
 21
222.8169988953
  0
LINE
  8
Layer0$C$L0
 62
     3
 10
73.8021429939
 20
222.8169988953
 11
73.8021429939
 21
223.1828485168
  0
LINE
  8
Layer0$C$L0
 62
     3
 10
73.8021429939
 20
223.1828485168
 11
73.7687984902
 21
223.5407034462
  0
LINE
  8
Layer0$C$L0
 62
     3
 10
73.7687984902
 20
223.5407034462
 11
73.7035667975
 21
223.8749237061
  0
LINE
  8
Layer0$C$L0
 62
     3
 10
73.7035667975
 20
223.8749237061
 11
73.6092988538
 21
224.1709022672
  0
LINE
  8
Layer0$C$L0
 62
     3
 10
73.6092988538
 20
224.1709022672
 11
73.4901146207
 21
224.4157034462
  0
LINE
  8
Layer0$C$L0
 62
     3
 10
73.4901146207
 20
224.4157034462
 11
73.3512230210
 21
224.5986282569
  0
LINE
  8
Layer0$C$L0
 62
     3
 10
73.3512230210
 20
224.5986282569
 11
73.1986942842
 21
224.7116820073
  0
LINE
  8
Layer0$C$L0
 62
     3
 10
73.1986942842
 20
224.7116820073
 11
73.0391946478
 21
224.7499237061
  0
LINE
  8
Layer0$C$L0
 62
     3
 10
73.0391946478
 20
224.4499359131
 11
72.8926035232
 21
224.4108506464
  0
LINE
  8
Layer0$C$L0
 62
     3
 10
72.8926035232
 20
224.4108506464
 11
72.7539151640
 21
224.2957019431
  0
LINE
  8
Layer0$C$L0
 62
     3
 10
72.7539151640
 20
224.2957019431
 11
72.6306062957
 21
224.1106974997
  0
LINE
  8
Layer0$C$L0
 62
     3
 10
72.6306062957
 20
224.1106974997
 11
72.5293245312
 21
223.8658109536
  0
LINE
  8
Layer0$C$L0
 62
     3
 10
72.5293245312
 20
223.8658109536
 11
72.4555299966
 21
223.5742442018
  0
LINE
  8
Layer0$C$L0
 62
     3
 10
72.4555299966
 20
223.5742442018
 11
72.4132009745
 21
223.2517156834
  0
LINE
  8
Layer0$C$L0
 62
     3
 10
72.4132009745
 20
223.2517156834
 11
72.4046194333
 21
222.9156129944
  0
LINE
  8
Layer0$C$L0
 62
     3
 10
72.4046194333
 20
222.9156129944
 11
72.4302480062
 21
222.5840555176
  0
LINE
  8
Layer0$C$L0
 62
     3
 10
72.4302480062
 20
222.5840555176
 11
72.4887050502
 21
222.2749176025
  0
LINE
  8
Layer0$C$L0
 62
     3
 10
72.4887050502
 20
222.2749176025
 11
72.5768391308
 21
222.0048649542
  0
LINE
  8
Layer0$C$L0
 62
     3
 10
72.5768391308
 20
222.0048649542
 11
72.6898989171
 21
221.7884561807
  0
LINE
  8
Layer0$C$L0
 62
     3
 10
72.6898989171
 20
221.7884561807
 11
72.8217893266
 21
221.6373579351
  0
LINE
  8
Layer0$C$L0
 62
     3
 10
72.8217893266
 20
221.6373579351
 11
72.9654001133
 21
221.5597159628
  0
LINE
  8
Layer0$C$L0
 62
     3
 10
72.9654001133
 20
221.5597159628
 11
73.1129891824
 21
221.5597159628
  0
LINE
  8
Layer0$C$L0
 62
     3
 10
73.1129891824
 20
221.5597159628
 11
73.2565999690
 21
221.6373579351
  0
LINE
  8
Layer0$C$L0
 62
     3
 10
73.2565999690
 20
221.6373579351
 11
73.3884903785
 21
221.7884561807
  0
LINE
  8
Layer0$C$L0
 62
     3
 10
73.3884903785
 20
221.7884561807
 11
73.5015501648
 21
222.0048649542
  0
LINE
  8
Layer0$C$L0
 62
     3
 10
73.5015501648
 20
222.0048649542
 11
73.5896842455
 21
222.2749176025
  0
LINE
  8
Layer0$C$L0
 62
     3
 10
73.5896842455
 20
222.2749176025
 11
73.6481412894
 21
222.5840555176
  0
LINE
  8
Layer0$C$L0
 62
     3
 10
73.6481412894
 20
222.5840555176
 11
73.6737698623
 21
222.9156129944
  0
LINE
  8
Layer0$C$L0
 62
     3
 10
73.6737698623
 20
222.9156129944
 11
73.6651883211
 21
223.2517156834
  0
LINE
  8
Layer0$C$L0
 62
     3
 10
73.6651883211
 20
223.2517156834
 11
73.6228592990
 21
223.5742442018
  0
LINE
  8
Layer0$C$L0
 62
     3
 10
73.6228592990
 20
223.5742442018
 11
73.5490647645
 21
223.8658109536
  0
LINE
  8
Layer0$C$L0
 62
     3
 10
73.5490647645
 20
223.8658109536
 11
73.4477829999
 21
224.1106974997
  0
LINE
  8
Layer0$C$L0
 62
     3
 10
73.4477829999
 20
224.1106974997
 11
73.3244741316
 21
224.2957019431
  0
LINE
  8
Layer0$C$L0
 62
     3
 10
73.3244741316
 20
224.2957019431
 11
73.1857857724
 21
224.4108506464
  0
LINE
  8
Layer0$C$L0
 62
     3
 10
73.1857857724
 20
224.4108506464
 11
73.0391946478
 21
224.4499359131
  0
LINE
  8
Layer0$C$L0
 62
     3
 10
72.2062783881
 20
226.9999237061
 11
72.2062783881
 21
226.7999420166
  0
LINE
  8
Layer0$C$L0
 62
     3
 10
72.3748224982
 20
223.8749237061
 11
72.3095908055
 21
223.5407034462
  0
LINE
  8
Layer0$C$L0
 62
     3
 10
72.3095908055
 20
223.5407034462
 11
72.2762463017
 21
223.1828485168
  0
LINE
  8
Layer0$C$L0
 62
     3
 10
72.2762463017
 20
223.1828485168
 11
72.2762463017
 21
222.8169988953
  0
LINE
  8
Layer0$C$L0
 62
     3
 10
72.2762463017
 20
222.8169988953
 11
72.3095908055
 21
222.4591439659
  0
LINE
  8
Layer0$C$L0
 62
     3
 10
72.3095908055
 20
222.4591439659
 11
72.3748224982
 21
222.1249237061
  0
LINE
  8
Layer0$C$L0
 62
     3
 10
72.4690904418
 20
224.1709022672
 11
72.3748224982
 21
223.8749237061
  0
LINE
  8
Layer0$C$L0
 62
     3
 10
72.3748224982
 20
222.1249237061
 11
72.4690904418
 21
221.8289451449
  0
LINE
  8
Layer0$C$L0
 62
     3
 10
71.5111489935
 20
237.9999542236
 11
72.9253335638
 21
237.9999542236
  0
LINE
  8
Layer0$C$L0
 62
     3
 10
71.1681619330
 20
237.8999481201
 11
71.1681619330
 21
236.6999359131
  0
LINE
  8
Layer0$C$L0
 62
     3
 10
72.9253335638
 20
238.1999359131
 11
72.9253335638
 21
237.9999542236
  0
LINE
  8
Layer0$C$L0
 62
     3
 10
72.2062783881
 20
237.9999542236
 11
72.2062783881
 21
238.1999359131
  0
LINE
  8
Layer0$C$L0
 62
     3
 10
71.5107531227
 20
241.1041922214
 11
71.5573590432
 21
241.3133470007
  0
LINE
  8
Layer0$C$L0
 62
     3
 10
71.5573590432
 20
241.3133470007
 11
71.5912814860
 21
241.5348435284
  0
LINE
  8
Layer0$C$L0
 62
     3
 10
71.5912814860
 20
241.5348435284
 11
71.6119106958
 21
241.7647004097
  0
LINE
  8
Layer0$C$L0
 62
     3
 10
71.6119106958
 20
241.7647004097
 11
71.6188758632
 21
241.9987859727
  0
LINE
  8
Layer0$C$L0
 62
     3
 10
71.6188758632
 20
241.9987859727
 11
71.6120517894
 21
242.2328925350
  0
LINE
  8
Layer0$C$L0
 62
     3
 10
71.6120517894
 20
242.2328925350
 11
71.5915611370
 21
242.4628120367
  0
LINE
  8
Layer0$C$L0
 62
     3
 10
71.5915611370
 20
242.4628120367
 11
71.5577722251
 21
242.6844116803
  0
LINE
  8
Layer0$C$L0
 62
     3
 10
71.5577722251
 20
242.6844116803
 11
71.5112924084
 21
242.8937082174
  0
LINE
  8
Layer0$C$L0
 62
     3
 10
71.5109243456
 20
240.4536158126
 11
71.6268024349
 21
240.6258663227
  0
LINE
  8
Layer0$C$L0
 62
     3
 10
71.6268024349
 20
240.6258663227
 11
71.7272390542
 21
240.8427806304
  0
LINE
  8
Layer0$C$L0
 62
     3
 10
71.7272390542
 20
240.8427806304
 11
71.8089695789
 21
241.0973080829
  0
LINE
  8
Layer0$C$L0
 62
     3
 10
71.8089695789
 20
241.0973080829
 11
71.8693374139
 21
241.3811754376
  0
LINE
  8
Layer0$C$L0
 62
     3
 10
71.8693374139
 20
241.3811754376
 11
71.9063803433
 21
241.6851557782
  0
LINE
  8
Layer0$C$L0
 62
     3
 10
71.9063803433
 20
241.6851557782
 11
71.9188943119
 21
241.9993684292
  0
LINE
  8
Layer0$C$L0
 62
     3
 10
71.9188943119
 20
241.9993684292
 11
71.9064725615
 21
242.3136001211
  0
LINE
  8
Layer0$C$L0
 62
     3
 10
71.9064725615
 20
242.3136001211
 11
71.8695188528
 21
242.6176369652
  0
LINE
  8
Layer0$C$L0
 62
     3
 10
71.8695188528
 20
242.6176369652
 11
71.8092343411
 21
242.9015964498
  0
LINE
  8
Layer0$C$L0
 62
     3
 10
71.8092343411
 20
242.9015964498
 11
71.7275785336
 21
243.1562486637
  0
LINE
  8
Layer0$C$L0
 62
     3
 10
71.7275785336
 20
243.1562486637
 11
71.6272055971
 21
243.3733163091
  0
LINE
  8
Layer0$C$L0
 62
     3
 10
71.6272055971
 20
243.3733163091
 11
71.5113780860
 21
243.5457437490
  0
LINE
  8
Layer0$C$L0
 62
     3
 10
73.0392287950
 20
243.7499542236
 11
72.8797319184
 21
243.7117142464
  0
LINE
  8
Layer0$C$L0
 62
     3
 10
72.8797319184
 20
243.7117142464
 11
72.7272049952
 21
243.5986621423
  0
LINE
  8
Layer0$C$L0
 62
     3
 10
72.7272049952
 20
243.5986621423
 11
72.5883141837
 21
243.4157388306
  0
LINE
  8
Layer0$C$L0
 62
     3
 10
72.5883141837
 20
243.4157388306
 11
72.4691296790
 21
243.1709389380
  0
LINE
  8
Layer0$C$L0
 62
     3
 10
72.4691044013
 20
240.8289818158
 11
72.5882836216
 21
240.5841793504
  0
LINE
  8
Layer0$C$L0
 62
     3
 10
72.5882836216
 20
240.5841793504
 11
72.7271704843
 21
240.4012530406
  0
LINE
  8
Layer0$C$L0
 62
     3
 10
72.7271704843
 20
240.4012530406
 11
72.8796949671
 21
240.2881976439
  0
LINE
  8
Layer0$C$L0
 62
     3
 10
72.8796949671
 20
240.2881976439
 11
73.0391910182
 21
240.2499542237
  0
LINE
  8
Layer0$C$L0
 62
     3
 10
73.0391910182
 20
240.2499542237
 11
73.1986878948
 21
240.2881942009
  0
LINE
  8
Layer0$C$L0
 62
     3
 10
73.1986878948
 20
240.2881942009
 11
73.3512148180
 21
240.4012463050
  0
LINE
  8
Layer0$C$L0
 62
     3
 10
73.3512148180
 20
240.4012463050
 11
73.4901056295
 21
240.5841696166
  0
LINE
  8
Layer0$C$L0
 62
     3
 10
73.4901056295
 20
240.5841696166
 11
73.6092901343
 21
240.8289695093
  0
LINE
  8
Layer0$C$L0
 62
     3
 10
73.6092901343
 20
240.8289695093
 11
73.7035593975
 21
241.1249470530
  0
LINE
  8
Layer0$C$L0
 62
     3
 10
73.7035593975
 20
241.1249470530
 11
73.7687934001
 21
241.4591666087
  0
LINE
  8
Layer0$C$L0
 62
     3
 10
73.7687934001
 20
241.4591666087
 11
73.8021411031
 21
241.8170211783
  0
LINE
  8
Layer0$C$L0
 62
     3
 10
73.8021411031
 20
241.8170211783
 11
73.8021450518
 21
242.1828707997
  0
LINE
  8
Layer0$C$L0
 62
     3
 10
73.8021450518
 20
242.1828707997
 11
73.7688050738
 21
242.5407260890
  0
LINE
  8
Layer0$C$L0
 62
     3
 10
73.7688050738
 20
242.5407260890
 11
73.7035782859
 21
242.8749470529
  0
LINE
  8
Layer0$C$L0
 62
     3
 10
73.7035782859
 20
242.8749470529
 11
73.6093154119
 21
243.1709266315
  0
LINE
  8
Layer0$C$L0
 62
     3
 10
73.6093154119
 20
243.1709266315
 11
73.4901361916
 21
243.4157290969
  0
LINE
  8
Layer0$C$L0
 62
     3
 10
73.4901361916
 20
243.4157290969
 11
73.3512493289
 21
243.5986554067
  0
LINE
  8
Layer0$C$L0
 62
     3
 10
73.3512493289
 20
243.5986554067
 11
73.1987248461
 21
243.7117108034
  0
LINE
  8
Layer0$C$L0
 62
     3
 10
73.1987248461
 20
243.7117108034
 11
73.0392287950
 21
243.7499542236
  0
LINE
  8
Layer0$C$L0
 62
     3
 10
73.0391946478
 20
240.5499420166
 11
73.1857857724
 21
240.5890272833
  0
LINE
  8
Layer0$C$L0
 62
     3
 10
73.1857857724
 20
240.5890272833
 11
73.3244741316
 21
240.7041759866
  0
LINE
  8
Layer0$C$L0
 62
     3
 10
73.3244741316
 20
240.7041759866
 11
73.4477829999
 21
240.8891804300
  0
LINE
  8
Layer0$C$L0
 62
     3
 10
73.4477829999
 20
240.8891804300
 11
73.5490647645
 21
241.1340669761
  0
LINE
  8
Layer0$C$L0
 62
     3
 10
73.5490647645
 20
241.1340669761
 11
73.6228592990
 21
241.4256337279
  0
LINE
  8
Layer0$C$L0
 62
     3
 10
73.6228592990
 20
241.4256337279
 11
73.6651883211
 21
241.7481622463
  0
LINE
  8
Layer0$C$L0
 62
     3
 10
73.6651883211
 20
241.7481622463
 11
73.6737698623
 21
242.0842649353
  0
LINE
  8
Layer0$C$L0
 62
     3
 10
73.6737698623
 20
242.0842649353
 11
73.6481412894
 21
242.4158224121
  0
LINE
  8
Layer0$C$L0
 62
     3
 10
73.6481412894
 20
242.4158224121
 11
73.5896842455
 21
242.7249603271
  0
LINE
  8
Layer0$C$L0
 62
     3
 10
73.5896842455
 20
242.7249603271
 11
73.5015501648
 21
242.9950129755
  0
LINE
  8
Layer0$C$L0
 62
     3
 10
73.5015501648
 20
242.9950129755
 11
73.3884903785
 21
243.2114217490
  0
LINE
  8
Layer0$C$L0
 62
     3
 10
73.3884903785
 20
243.2114217490
 11
73.2565999690
 21
243.3625199946
  0
LINE
  8
Layer0$C$L0
 62
     3
 10
73.2565999690
 20
243.3625199946
 11
73.1129891824
 21
243.4401619669
  0
LINE
  8
Layer0$C$L0
 62
     3
 10
73.1129891824
 20
243.4401619669
 11
72.9654001133
 21
243.4401619669
  0
LINE
  8
Layer0$C$L0
 62
     3
 10
72.9654001133
 20
243.4401619669
 11
72.8217893266
 21
243.3625199946
  0
LINE
  8
Layer0$C$L0
 62
     3
 10
72.8217893266
 20
243.3625199946
 11
72.6898989171
 21
243.2114217490
  0
LINE
  8
Layer0$C$L0
 62
     3
 10
72.6898989171
 20
243.2114217490
 11
72.5768391308
 21
242.9950129755
  0
LINE
  8
Layer0$C$L0
 62
     3
 10
72.5768391308
 20
242.9950129755
 11
72.4887050502
 21
242.7249603271
  0
LINE
  8
Layer0$C$L0
 62
     3
 10
72.4887050502
 20
242.7249603271
 11
72.4302480062
 21
242.4158224121
  0
LINE
  8
Layer0$C$L0
 62
     3
 10
72.4302480062
 20
242.4158224121
 11
72.4046194333
 21
242.0842649353
  0
LINE
  8
Layer0$C$L0
 62
     3
 10
72.4046194333
 20
242.0842649353
 11
72.4132009745
 21
241.7481622463
  0
LINE
  8
Layer0$C$L0
 62
     3
 10
72.4132009745
 20
241.7481622463
 11
72.4555299966
 21
241.4256337279
  0
LINE
  8
Layer0$C$L0
 62
     3
 10
72.4555299966
 20
241.4256337279
 11
72.5293245312
 21
241.1340669761
  0
LINE
  8
Layer0$C$L0
 62
     3
 10
72.5293245312
 20
241.1340669761
 11
72.6306062957
 21
240.8891804300
  0
LINE
  8
Layer0$C$L0
 62
     3
 10
72.6306062957
 20
240.8891804300
 11
72.7539151640
 21
240.7041759866
  0
LINE
  8
Layer0$C$L0
 62
     3
 10
72.7539151640
 20
240.7041759866
 11
72.8926035232
 21
240.5890272833
  0
LINE
  8
Layer0$C$L0
 62
     3
 10
72.8926035232
 20
240.5890272833
 11
73.0391946478
 21
240.5499420166
  0
LINE
  8
Layer0$C$L0
 62
     3
 10
72.3748604157
 20
242.8749613943
 11
72.3096264131
 21
242.5407418385
  0
LINE
  8
Layer0$C$L0
 62
     3
 10
72.3096264131
 20
242.5407418385
 11
72.2762787101
 21
242.1828872690
  0
LINE
  8
Layer0$C$L0
 62
     3
 10
72.2762787101
 20
242.1828872690
 11
72.2762747614
 21
241.8170376476
  0
LINE
  8
Layer0$C$L0
 62
     3
 10
72.2762747614
 20
241.8170376476
 11
72.3096147394
 21
241.4591823582
  0
LINE
  8
Layer0$C$L0
 62
     3
 10
72.3096147394
 20
241.4591823582
 11
72.3748415273
 21
241.1249613943
  0
LINE
  8
Layer0$C$L0
 62
     3
 10
72.4691296790
 20
243.1709389380
 11
72.3748604157
 21
242.8749613943
  0
LINE
  8
Layer0$C$L0
 62
     3
 10
72.3748415273
 20
241.1249613943
 11
72.4691044013
 21
240.8289818158
  0
LINE
  8
Layer0$C$L0
 62
     3
 10
80.6117349310
 20
219.2806549072
 11
80.6117349310
 21
226.6989593506
  0
LINE
  8
Layer0$C$L0
 62
     3
 10
75.1433816595
 20
219.4735870361
 11
75.1433816595
 21
226.4568328857
  0
LINE
  8
Layer0$C$L0
 62
     3
 10
81.1117349310
 20
217.7999420166
 11
81.1117349310
 21
227.0999298096
  0
LINE
  8
Layer0$C$L0
 62
     3
 10
77.0203347845
 20
218.8999481201
 11
77.0203347845
 21
227.0999298096
  0
LINE
  8
Layer0$C$L0
 62
     3
 10
75.8257241888
 20
218.8999481201
 11
75.8257241888
 21
227.0999298096
  0
LINE
  8
Layer0$C$L0
 62
     3
 10
75.7045694037
 20
218.8999481201
 11
75.7045694037
 21
227.0999298096
  0
LINE
  8
Layer0$C$L0
 62
     3
 10
75.2925515814
 20
219.2999420166
 11
75.7045694037
 21
219.2999420166
  0
LINE
  8
Layer0$C$L0
 62
     3
 10
75.2925515814
 20
219.2999420166
 11
75.2925515814
 21
218.9999237061
  0
LINE
  8
Layer0$C$L0
 62
     3
 10
74.5734964056
 20
218.9999237061
 11
74.5734964056
 21
219.1999359131
  0
LINE
  8
Layer0$C$L0
 62
     3
 10
73.8721109076
 20
218.9999237061
 11
73.8721109076
 21
219.1999359131
  0
LINE
  8
Layer0$C$L0
 62
     3
 10
80.8309121771
 20
218.2113494873
 11
80.8309121771
 21
218.7951507568
  0
ARC
  8
Layer0$C$L0
 62
     3
 10
80.5309243842
 20
218.0999298096
 40
0.3000000119
 50
304.2394625972
 51
348.7908570248
  0
LINE
  8
Layer0$C$L0
 62
     3
 10
78.0117288275
 20
228.2999420166
 11
78.0117288275
 21
236.6999359131
  0
LINE
  8
Layer0$C$L0
 62
     3
 10
74.7117105170
 20
228.2999420166
 11
74.7117105170
 21
236.6999359131
  0
LINE
  8
Layer0$C$L0
 62
     3
 10
75.6788125677
 20
227.0999298096
 11
75.6788125677
 21
228.2999420166
  0
LINE
  8
Layer0$C$L0
 62
     3
 10
75.2925515814
 20
226.6999359131
 11
75.7045694037
 21
226.6999359131
  0
LINE
  8
Layer0$C$L0
 62
     3
 10
75.2925515814
 20
226.6999359131
 11
75.2925515814
 21
226.9999237061
  0
LINE
  8
Layer0$C$L0
 62
     3
 10
74.5734964056
 20
226.9999237061
 11
74.5734964056
 21
226.7999420166
  0
LINE
  8
Layer0$C$L0
 62
     3
 10
73.8721109076
 20
226.9999237061
 11
73.8721109076
 21
226.7999420166
  0
LINE
  8
Layer0$C$L0
 62
     3
 10
73.8721109076
 20
226.9999237061
 11
75.2925515814
 21
226.9999237061
  0
LINE
  8
Layer0$C$L0
 62
     3
 10
75.2925515814
 20
238.2999420166
 11
75.7045694037
 21
238.2999420166
  0
LINE
  8
Layer0$C$L0
 62
     3
 10
75.2925515814
 20
238.2999420166
 11
75.2925515814
 21
237.9999542236
  0
LINE
  8
Layer0$C$L0
 62
     3
 10
74.5734964056
 20
237.9999542236
 11
74.5734964056
 21
238.1999359131
  0
LINE
  8
Layer0$C$L0
 62
     3
 10
73.8721109076
 20
237.9999542236
 11
73.8721109076
 21
238.1999359131
  0
LINE
  8
Layer0$C$L0
 62
     3
 10
73.8721109076
 20
237.9999542236
 11
75.2925515814
 21
237.9999542236
  0
LINE
  8
Layer0$C$L0
 62
     3
 10
75.6788125677
 20
237.8999481201
 11
75.6788125677
 21
236.6999359131
  0
LINE
  8
Layer0$C$L0
 62
     3
 10
81.1117349310
 20
246.0999298096
 11
69.9117227240
 21
246.0999298096
  0
LINE
  8
Layer0$C$L0
 62
     3
 10
82.5961404486
 20
246.8999481201
 11
66.2671304388
 21
246.8999481201
  0
LINE
  8
Layer0$C$L0
 62
     3
 10
71.5111489935
 20
245.9999542236
 11
75.7045694037
 21
245.9999542236
  0
LINE
  8
Layer0$C$L0
 62
     3
 10
72.2062783881
 20
245.7999420166
 11
74.5911660834
 21
245.7999420166
  0
LINE
  8
Layer0$C$L0
 62
     3
 10
71.1681619330
 20
247.1999359131
 11
71.1681619330
 21
246.0999298096
  0
LINE
  8
Layer0$C$L0
 62
     3
 10
72.9253335638
 20
245.7999420166
 11
72.9253335638
 21
245.9999542236
  0
LINE
  8
Layer0$C$L0
 62
     3
 10
72.2062783881
 20
245.9999542236
 11
72.2062783881
 21
245.7999420166
  0
LINE
  8
Layer0$C$L0
 62
     3
 10
75.2925515814
 20
245.6999359131
 11
75.7045694037
 21
245.6999359131
  0
LINE
  8
Layer0$C$L0
 62
     3
 10
75.2925515814
 20
245.6999359131
 11
75.2925515814
 21
245.9999542236
  0
LINE
  8
Layer0$C$L0
 62
     3
 10
74.5734964056
 20
245.9999542236
 11
74.5734964056
 21
245.7999420166
  0
LINE
  8
Layer0$C$L0
 62
     3
 10
73.8721109076
 20
245.9999542236
 11
73.8721109076
 21
245.7999420166
  0
LINE
  8
Layer0$C$L0
 62
     3
 10
80.8309121771
 20
246.7885284424
 11
80.8309121771
 21
246.2047271729
  0
ARC
  8
Layer0$C$L0
 62
     3
 10
80.5309243842
 20
246.8999481201
 40
0.3000000119
 50
11.2091395601
 51
55.7605408179
  0
TEXT
  8
Layer0$C$L0
 62
     7
 10
138.0000000000
 20
115.0000029552
 40
2.9999940395
  1
ABW1/AOW104*
 72
     5
 11
173.1977384038
 21
115.0000029552
  0
TEXT
  8
Layer0$C$L0
 62
     7
 10
138.0000000000
 20
110.0000029552
 40
2.9999940395
  1
ABW1/AOW113*
 72
     5
 11
173.1977384038
 21
110.0000029552
  0
TEXT
  8
Layer0$C$L0
 62
     7
 10
138.0000000000
 20
105.0000029552
 40
2.9999940395
  1
ABW1/AOW122*
 72
     5
 11
173.1977384038
 21
105.0000029552
  0
TEXT
  8
Layer0$C$L0
 62
     7
 10
138.0000000000
 20
100.0000029553
 40
2.9999940395
  1
ABW1/AOW131*
 72
     5
 11
173.1977384038
 21
100.0000029553
  0
TEXT
  8
Layer0$C$L0
 62
     7
 10
138.0000000000
 20
95.0000029553
 40
2.9999940395
  1
ABW1/AOW140*
 72
     5
 11
173.1977384038
 21
95.0000029553
  0
LINE
  8
Layer0$C$L0
 62
     3
 10
117.5117440863
 20
246.5000000000
 11
124.2117410345
 21
246.5000000000
  0
LINE
  8
Layer0$C$L0
 62
     3
 10
111.5117570254
 20
245.9999758501
 11
112.3117567587
 21
246.9999755167
  0
LINE
  8
Layer0$C$L0
 62
     3
 10
112.3117471381
 20
247.0000000000
 11
117.0117440863
 21
247.0000000000
  0
LINE
  8
Layer0$C$L0
 62
     3
 10
112.3117471381
 20
246.5000000000
 11
117.0117440863
 21
246.5000000000
  0
LINE
  8
Layer0$C$L0
 62
     3
 10
112.3117471381
 20
245.6999969482
 11
117.0117440863
 21
245.6999969482
  0
LINE
  8
Layer0$C$L0
 62
     3
 10
112.3117471381
 20
244.5999908447
 11
117.0117440863
 21
244.5999908447
  0
LINE
  8
Layer0$C$L0
 62
     3
 10
117.0117343292
 20
246.9999850126
 11
117.5117348600
 21
246.4999844818
  0
LINE
  8
Layer0$C$L0
 62
     3
 10
124.2117268672
 20
246.4999844818
 11
124.5117315015
 21
246.1999798474
  0
LINE
  8
Layer0$C$L0
 62
     3
 10
104.7117257758
 20
244.5999755859
 11
109.5117288275
 21
244.5999755859
  0
LINE
  8
Layer0$C$L0
 62
     3
 10
104.7117257758
 20
245.6999816895
 11
109.5117288275
 21
245.6999816895
  0
LINE
  8
Layer0$C$L0
 62
     3
 10
104.7117257758
 20
246.9999694824
 11
109.5117288275
 21
246.9999694824
  0
ARC
  8
Layer0$C$L0
 62
     3
 10
96.5117440863
 20
246.7999725342
 40
0.5000000000
 50
0.0000000000
 51
89.9999273724
  0
LINE
  8
Layer0$C$L0
 62
     3
 10
102.2117257758
 20
246.4999694824
 11
109.5117288275
 21
246.4999694824
  0
ARC
  8
Layer0$C$L0
 62
     3
 10
82.5117440863
 20
246.6999816895
 40
0.5000000000
 50
0.0000000000
 51
89.9999820139
  0
LINE
  8
Layer0$C$L0
 62
     3
 10
83.0117288275
 20
247.2999725342
 11
96.5117288275
 21
247.2999725342
  0
ARC
  8
Layer0$C$L0
 62
     3
 10
65.2954507513
 20
246.8999481201
 40
0.3000000119
 50
89.9999820139
 51
179.9999640278
  0
ARC
  8
Layer0$C$L0
 62
     3
 10
66.1855264349
 20
246.3999481201
 40
0.3000000119
 50
179.9999640278
 51
270.0000006832
  0
LINE
  8
Layer0$C$L0
 62
     3
 10
65.8855386420
 20
247.1999359131
 11
65.8855386420
 21
246.3999481201
  0
LINE
  8
Layer0$C$L0
 62
     3
 10
63.0658969094
 20
244.8648378270
 11
62.8841126541
 21
244.7606248955
  0
LINE
  8
Layer0$C$L0
 62
     3
 10
62.9894144374
 20
244.9374901017
 11
62.8161843849
 21
244.7623767969
  0
LINE
  8
Layer0$C$L0
 62
     3
 10
62.8841126541
 20
244.7606248955
 11
62.7109915091
 21
244.5967359229
  0
LINE
  8
Layer0$C$L0
 62
     3
 10
63.2524147353
 20
244.9071219984
 11
63.0658969094
 21
244.8648378270
  0
LINE
  8
Layer0$C$L0
 62
     3
 10
63.1713929417
 20
245.0502356900
 11
62.9894144374
 21
244.9374901017
  0
LINE
  8
Layer0$C$L0
 62
     3
 10
63.3582562567
 20
245.0982198261
 11
63.1713929417
 21
245.0502356900
  0
LINE
  8
Layer0$C$L0
 62
     3
 10
63.5460370308
 20
245.0804237443
 11
63.3582562567
 21
245.0982198261
  0
LINE
  8
Layer0$C$L0
 62
     3
 10
63.7307484332
 20
244.9972252784
 11
63.5460370308
 21
245.0804237443
  0
LINE
  8
Layer0$C$L0
 62
     3
 10
63.9084688001
 20
244.8503908405
 11
63.7307484332
 21
244.9972252784
  0
LINE
  8
Layer0$C$L0
 62
     3
 10
64.0754248964
 20
244.6430379170
 11
63.9084688001
 21
244.8503908405
  0
LINE
  8
Layer0$C$L0
 62
     3
 10
63.8107455344
 20
244.9396862142
 11
63.2522773105
 21
244.9071066552
  0
ARC
  8
Layer0$C$L0
 62
     3
 10
62.4117227240
 20
246.8999481201
 40
0.3000000119
 50
89.9999820139
 51
179.9999640278
  0
LINE
  8
Layer0$C$L0
 62
     3
 10
65.5817056342
 20
246.8999481201
 11
62.4344278021
 21
246.8999481201
  0
ARC
  8
Layer0$C$L0
 62
     3
 10
60.5309243842
 20
246.8999481201
 40
0.3000000119
 50
11.2091395601
 51
55.7605408179
  0
LINE
  8
Layer0$C$L0
 62
     3
 10
60.8309121771
 20
246.7885284424
 11
60.8309121771
 21
246.2047271729
  0
LINE
  8
Layer0$C$L0
 62
     3
 10
53.8721109076
 20
245.9999542236
 11
53.8721109076
 21
245.7999420166
  0
LINE
  8
Layer0$C$L0
 62
     3
 10
54.5734964056
 20
245.9999542236
 11
54.5734964056
 21
245.7999420166
  0
LINE
  8
Layer0$C$L0
 62
     3
 10
55.2925515814
 20
245.6999359131
 11
55.2925515814
 21
245.9999542236
  0
LINE
  8
Layer0$C$L0
 62
     3
 10
55.2925515814
 20
245.6999359131
 11
55.7045694037
 21
245.6999359131
  0
LINE
  8
Layer0$C$L0
 62
     3
 10
68.7117105170
 20
246.0999298096
 11
66.1855264349
 21
246.0999298096
  0
LINE
  8
Layer0$C$L0
 62
     3
 10
52.2062783881
 20
245.9999542236
 11
52.2062783881
 21
245.7999420166
  0
LINE
  8
Layer0$C$L0
 62
     3
 10
52.9253335638
 20
245.7999420166
 11
52.9253335638
 21
245.9999542236
  0
LINE
  8
Layer0$C$L0
 62
     3
 10
51.1681619330
 20
247.1999359131
 11
51.1681619330
 21
246.0999298096
  0
ARC
  8
Layer0$C$L0
 62
     3
 10
46.1855264349
 20
246.3999481201
 40
0.3000000119
 50
179.9999640278
 51
270.0000006832
  0
LINE
  8
Layer0$C$L0
 62
     3
 10
45.8855386420
 20
247.1999359131
 11
45.8855386420
 21
246.3999481201
  0
LINE
  8
Layer0$C$L0
 62
     3
 10
43.7307484332
 20
244.9972252784
 11
43.5460370308
 21
245.0804237443
  0
LINE
  8
Layer0$C$L0
 62
     3
 10
43.5460370308
 20
245.0804237443
 11
43.3582562567
 21
245.0982198261
  0
LINE
  8
Layer0$C$L0
 62
     3
 10
43.9084688001
 20
244.8503908405
 11
43.7307484332
 21
244.9972252784
  0
LINE
  8
Layer0$C$L0
 62
     3
 10
44.0754248964
 20
244.6430379170
 11
43.9084688001
 21
244.8503908405
  0
ARC
  8
Layer0$C$L0
 62
     3
 10
45.2954507513
 20
246.8999481201
 40
0.3000000119
 50
89.9999820139
 51
179.9999640278
  0
LINE
  8
Layer0$C$L0
 62
     3
 10
42.8841126541
 20
244.7606248955
 11
42.7109915091
 21
244.5967359229
  0
LINE
  8
Layer0$C$L0
 62
     3
 10
43.0658969094
 20
244.8648378270
 11
42.8841126541
 21
244.7606248955
  0
LINE
  8
Layer0$C$L0
 62
     3
 10
43.2524147353
 20
244.9071219984
 11
43.0658969094
 21
244.8648378270
  0
LINE
  8
Layer0$C$L0
 62
     3
 10
42.9894144374
 20
244.9374901017
 11
42.8161843849
 21
244.7623767969
  0
LINE
  8
Layer0$C$L0
 62
     3
 10
43.1713929417
 20
245.0502356900
 11
42.9894144374
 21
244.9374901017
  0
ARC
  8
Layer0$C$L0
 62
     3
 10
42.4117227240
 20
246.8999481201
 40
0.3000000119
 50
89.9999820139
 51
179.9999640278
  0
LINE
  8
Layer0$C$L0
 62
     3
 10
43.8107455344
 20
244.9396862142
 11
43.2522773105
 21
244.9071066552
  0
LINE
  8
Layer0$C$L0
 62
     3
 10
45.5817056342
 20
246.8999481201
 11
42.4344278021
 21
246.8999481201
  0
LINE
  8
Layer0$C$L0
 62
     3
 10
43.3582562567
 20
245.0982198261
 11
43.1713929417
 21
245.0502356900
  0
LINE
  8
Layer0$C$L0
 62
     3
 10
48.7117105170
 20
246.0999298096
 11
46.1855264349
 21
246.0999298096
  0
LINE
  8
Layer0$C$L0
 62
     3
 10
82.5117440863
 20
247.1999359131
 11
42.4117227240
 21
247.1999359131
  0
LINE
  8
Layer0$C$L0
 62
     3
 10
52.2062783881
 20
245.7999420166
 11
54.5911660834
 21
245.7999420166
  0
LINE
  8
Layer0$C$L0
 62
     3
 10
51.5111489935
 20
245.9999542236
 11
55.7045694037
 21
245.9999542236
  0
LINE
  8
Layer0$C$L0
 62
     3
 10
62.1117349310
 20
246.8999481201
 11
46.2671304388
 21
246.8999481201
  0
LINE
  8
Layer0$C$L0
 62
     3
 10
61.1117349310
 20
246.0999298096
 11
49.9117227240
 21
246.0999298096
  0
LINE
  8
Layer0$C$L0
 10
210.0000000000
 20
297.0000000000
 11
0.0000000000
 21
297.0000000000
  0
ARC
  8
Layer0$C$L0
 62
     3
 10
173.9116311713
 20
188.9002838135
 40
0.3000000119
 50
0.0000000000
 51
89.9999820139
  0
LINE
  8
Layer0$C$L0
 62
     3
 10
173.7116342230
 20
188.7384643555
 11
173.7116342230
 21
186.5003204346
  0
LINE
  8
Layer0$C$L0
 62
     3
 10
174.2116342230
 20
188.9002838135
 11
174.2116342230
 21
186.2996884890
  0
LINE
  8
Layer0$C$L0
 62
     3
 10
173.1116281195
 20
189.2002868652
 11
173.1116281195
 21
186.5003204346
  0
ARC
  8
Layer0$C$L0
 62
     3
 10
173.3117318793
 20
185.4999847412
 40
1.0000000000
 50
7.2627560058E-05
 51
89.9999820139
  0
ARC
  8
Layer0$C$L0
 62
     3
 10
164.0116372748
 20
188.9002838135
 40
0.3000000119
 50
89.9999820139
 51
179.9999640278
  0
LINE
  8
Layer0$C$L0
 62
     3
 10
164.8117318793
 20
186.5000000000
 11
164.8117318793
 21
187.0000000000
  0
LINE
  8
Layer0$C$L0
 62
     3
 10
163.6616311713
 20
187.0002899170
 11
163.6616311713
 21
184.9857001834
  0
LINE
  8
Layer0$C$L0
 62
     3
 10
163.7117410345
 20
187.0000000000
 11
163.7117410345
 21
185.0000000000
  0
LINE
  8
Layer0$C$L0
 62
     3
 10
160.6616311713
 20
187.0002899170
 11
160.6616311713
 21
185.4610649607
  0
LINE
  8
Layer0$C$L0
 62
     3
 10
160.6117349310
 20
187.0000000000
 11
160.6117349310
 21
185.0000000000
  0
LINE
  8
Layer0$C$L0
 62
     3
 10
160.6616311713
 20
185.5002899170
 11
163.6616311713
 21
185.5002899170
  0
LINE
  8
Layer0$C$L0
 62
     3
 10
161.0089517279
 20
186.5002899170
 11
163.2458749457
 21
186.5002899170
  0
LINE
  8
Layer0$C$L0
  6
PHANTOM
 62
     3
 10
159.5117440863
 20
187.0000000000
 11
159.5117440863
 21
187.8999938965
  0
LINE
  8
Layer0$C$L0
  6
PHANTOM
 62
     3
 10
159.5117135687
 20
187.0000000000
 11
159.5117135687
 21
187.8999938965
  0
LINE
  8
Layer0$C$L0
 62
     3
 10
164.9116311713
 20
188.7210693359
 11
164.9116311713
 21
187.0000000000
  0
LINE
  8
Layer0$C$L0
 62
     3
 10
163.7116342230
 20
187.0002899170
 11
163.7116342230
 21
188.9002838135
  0
ARC
  8
Layer0$C$L0
 62
     3
 10
155.0118203802
 20
188.9002838135
 40
0.3000000119
 50
3.5972178686E-05
 51
90.0000179861
  0
LINE
  8
Layer0$C$L0
 62
     3
 10
158.3618264838
 20
187.0002899170
 11
158.3618264838
 21
185.4610649607
  0
LINE
  8
Layer0$C$L0
 62
     3
 10
158.4117379828
 20
185.0000000000
 11
158.4117379828
 21
187.0000000000
  0
LINE
  8
Layer0$C$L0
 62
     3
 10
155.3618264838
 20
187.0002899170
 11
155.3618264838
 21
184.9857001834
  0
LINE
  8
Layer0$C$L0
 62
     3
 10
154.2117410345
 20
187.0000000000
 11
154.2117410345
 21
186.5000000000
  0
LINE
  8
Layer0$C$L0
 62
     3
 10
155.3117318793
 20
185.0000000000
 11
155.3117318793
 21
187.0000000000
  0
LINE
  8
Layer0$C$L0
 62
     3
 10
158.3618264838
 20
185.5002899170
 11
155.3618264838
 21
185.5002899170
  0
LINE
  8
Layer0$C$L0
 62
     3
 10
158.0145059271
 20
186.5002899170
 11
155.7775827093
 21
186.5002899170
  0
LINE
  8
Layer0$C$L0
 62
     3
 10
154.1118264838
 20
188.7210693359
 11
154.1118264838
 21
186.5003204346
  0
LINE
  8
Layer0$C$L0
 62
     3
 10
155.3118234320
 20
187.0002899170
 11
155.3118234320
 21
188.9002838135
  0
LINE
  8
Layer0$C$L0
 62
     3
 10
154.1118264838
 20
187.0002899170
 11
164.9116311713
 21
187.0002899170
  0
LINE
  8
Layer0$C$L0
 62
     3
 10
154.2117410345
 20
187.0000000000
 11
164.8117318793
 21
187.0000000000
  0
LINE
  8
Layer0$C$L0
 62
     3
 10
155.3117318793
 20
185.0000000000
 11
163.7117410345
 21
185.0000000000
  0
LINE
  8
Layer0$C$L0
 62
     3
 10
145.9118295355
 20
189.2002868652
 11
145.9118295355
 21
186.5003204346
  0
ARC
  8
Layer0$C$L0
 62
     3
 10
145.1118264838
 20
188.9002838135
 40
0.3000000119
 50
89.9999820139
 51
179.9999640278
  0
LINE
  8
Layer0$C$L0
 62
     3
 10
145.3118234320
 20
188.7384643555
 11
145.3118234320
 21
186.5003204346
  0
LINE
  8
Layer0$C$L0
 62
     3
 10
144.8118234320
 20
188.9002838135
 11
144.8118234320
 21
186.2996884890
  0
ARC
  8
Layer0$C$L0
 62
     3
 10
145.7117410345
 20
185.5000000000
 40
1.0000000000
 50
89.9999820139
 51
179.9999640278
  0
LINE
  8
Layer0$C$L0
 62
     3
 10
153.8933969183
 20
187.3931427002
 11
146.2040353461
 21
187.3931427002
  0
LINE
  8
Layer0$C$L0
 62
     3
 10
154.1118264838
 20
188.7210693359
 11
145.9118295355
 21
188.7210693359
  0
LINE
  8
Layer0$C$L0
 62
     3
 10
154.1118264838
 20
188.1091308594
 11
145.9118295355
 21
188.1091308594
  0
LINE
  8
Layer0$C$L0
 62
     3
 10
154.1118264838
 20
186.8538665771
 11
145.9118295355
 21
186.8538665771
  0
LINE
  8
Layer0$C$L0
 62
     3
 10
145.1118264838
 20
189.2002868652
 11
155.0118203802
 21
189.2002868652
  0
LINE
  8
Layer0$C$L0
 62
     3
 10
145.7117410345
 20
186.5000000000
 11
154.2117410345
 21
186.5000000000
  0
LINE
  8
Layer0$C$L0
  6
CENTER
 62
     3
 10
141.9577432318
 20
168.5000000000
 11
176.8777566595
 21
168.5000000000
  0
CIRCLE
  8
Layer0$C$L0
 62
     3
 10
159.5117440863
 20
168.5000000000
 40
14.5000000000
  0
CIRCLE
  8
Layer0$C$L0
 62
     3
 10
159.5117440863
 20
168.5000000000
 40
12.0000000000
  0
CIRCLE
  8
Layer0$C$L0
 62
     3
 10
159.5117440863
 20
168.5000000000
 40
14.0000000000
  0
LINE
  8
Layer0$C$L0
 62
     3
 10
165.1300607367
 20
187.3931427002
 11
172.8194223090
 21
187.3931427002
  0
LINE
  8
Layer0$C$L0
 62
     3
 10
164.9116311713
 20
188.7210693359
 11
173.1116281195
 21
188.7210693359
  0
LINE
  8
Layer0$C$L0
 62
     3
 10
164.9116311713
 20
188.1091308594
 11
173.1116281195
 21
188.1091308594
  0
LINE
  8
Layer0$C$L0
 62
     3
 10
164.9116311713
 20
186.8538665771
 11
173.1116281195
 21
186.8538665771
  0
LINE
  8
Layer0$C$L0
 62
     3
 10
173.9116311713
 20
189.2002868652
 11
164.0116372748
 21
189.2002868652
  0
LINE
  8
Layer0$C$L0
 62
     3
 10
164.8117318793
 20
186.5000000000
 11
173.3117318793
 21
186.5000000000
  0
LINE
  8
Layer0$C$L0
 62
     3
 10
173.7116342230
 20
148.2615356445
 11
173.7116342230
 21
150.4996795654
  0
LINE
  8
Layer0$C$L0
 62
     3
 10
174.2116342230
 20
148.0997161865
 11
174.2116342230
 21
150.7003115110
  0
ARC
  8
Layer0$C$L0
 62
     3
 10
173.9116311713
 20
148.0997161865
 40
0.3000000119
 50
270.0000179861
 51
360.0000000000
  0
LINE
  8
Layer0$C$L0
 62
     3
 10
173.1116281195
 20
147.7997131348
 11
173.1116281195
 21
150.4996795654
  0
ARC
  8
Layer0$C$L0
 62
     3
 10
173.3117318793
 20
151.5000000000
 40
1.0000000000
 50
270.0001272691
 51
360.0000726276
  0
LINE
  8
Layer0$C$L0
 62
     3
 10
164.9116311713
 20
148.2789306641
 11
164.9116311713
 21
150.0000000000
  0
LINE
  8
Layer0$C$L0
 62
     3
 10
164.8117318793
 20
150.5000000000
 11
164.8117318793
 21
150.0000000000
  0
LINE
  8
Layer0$C$L0
 62
     3
 10
163.7116342230
 20
149.9997100830
 11
163.7116342230
 21
148.0997161865
  0
LINE
  8
Layer0$C$L0
 62
     3
 10
163.6616311713
 20
149.9997100830
 11
163.6616311713
 21
152.0142998166
  0
ARC
  8
Layer0$C$L0
 62
     3
 10
164.0116372748
 20
148.0997161865
 40
0.3000000119
 50
180.0000359722
 51
270.0000179861
  0
LINE
  8
Layer0$C$L0
 62
     3
 10
163.7117410345
 20
152.0000000000
 11
163.7117410345
 21
150.0000000000
  0
LINE
  8
Layer0$C$L0
  6
PHANTOM
 62
     3
 10
159.5117440863
 20
149.1000366211
 11
159.5117440863
 21
150.0000000000
  0
LINE
  8
Layer0$C$L0
  6
PHANTOM
 62
     3
 10
159.5117135687
 20
149.1000366211
 11
159.5117135687
 21
150.0000000000
  0
LINE
  8
Layer0$C$L0
 62
     3
 10
160.6616311713
 20
149.9997100830
 11
160.6616311713
 21
151.5389350393
  0
LINE
  8
Layer0$C$L0
 62
     3
 10
160.6117349310
 20
152.0000000000
 11
160.6117349310
 21
150.0000000000
  0
LINE
  8
Layer0$C$L0
 62
     3
 10
160.6616311713
 20
151.4997100830
 11
163.6616311713
 21
151.4997100830
  0
LINE
  8
Layer0$C$L0
 62
     3
 10
161.0089517279
 20
150.4997100830
 11
163.2458749457
 21
150.4997100830
  0
LINE
  8
Layer0$C$L0
 62
     3
 10
158.3618264838
 20
149.9997100830
 11
158.3618264838
 21
151.5389350393
  0
LINE
  8
Layer0$C$L0
 62
     3
 10
158.4117379828
 20
150.0000000000
 11
158.4117379828
 21
152.0000000000
  0
LINE
  8
Layer0$C$L0
 62
     3
 10
154.2117410345
 20
150.0000000000
 11
154.2117410345
 21
150.5000000000
  0
ARC
  8
Layer0$C$L0
 62
     3
 10
155.0118203802
 20
148.0997161865
 40
0.3000000119
 50
269.9999820139
 51
359.9999640278
  0
LINE
  8
Layer0$C$L0
 62
     3
 10
155.3618264838
 20
149.9997100830
 11
155.3618264838
 21
152.0142998166
  0
LINE
  8
Layer0$C$L0
 62
     3
 10
155.3118234320
 20
149.9997100830
 11
155.3118234320
 21
148.0997161865
  0
LINE
  8
Layer0$C$L0
 62
     3
 10
155.3117318793
 20
150.0000000000
 11
155.3117318793
 21
152.0000000000
  0
LINE
  8
Layer0$C$L0
 62
     3
 10
154.1118264838
 20
148.2789306641
 11
154.1118264838
 21
150.4996795654
  0
LINE
  8
Layer0$C$L0
 62
     3
 10
158.0145059271
 20
150.4997100830
 11
155.7775827093
 21
150.4997100830
  0
LINE
  8
Layer0$C$L0
 62
     3
 10
158.3618264838
 20
151.4997100830
 11
155.3618264838
 21
151.4997100830
  0
LINE
  8
Layer0$C$L0
 62
     3
 10
154.1118264838
 20
149.9997100830
 11
164.9116311713
 21
149.9997100830
  0
LINE
  8
Layer0$C$L0
 62
     3
 10
164.8117318793
 20
150.0000000000
 11
154.2117410345
 21
150.0000000000
  0
LINE
  8
Layer0$C$L0
 62
     3
 10
155.3117318793
 20
152.0000000000
 11
163.7117410345
 21
152.0000000000
  0
LINE
  8
Layer0$C$L0
 62
     3
 10
145.9118295355
 20
147.7997131348
 11
145.9118295355
 21
150.4996795654
  0
LINE
  8
Layer0$C$L0
 62
     3
 10
144.8118234320
 20
148.0997161865
 11
144.8118234320
 21
150.7003115110
  0
LINE
  8
Layer0$C$L0
 62
     3
 10
145.3118234320
 20
148.2615356445
 11
145.3118234320
 21
150.4996795654
  0
ARC
  8
Layer0$C$L0
 62
     3
 10
145.1118264838
 20
148.0997161865
 40
0.3000000119
 50
180.0000359722
 51
270.0000179861
  0
ARC
  8
Layer0$C$L0
 62
     3
 10
145.7117410345
 20
151.5000152588
 40
1.0000000000
 50
179.9999640278
 51
269.9999460417
  0
LINE
  8
Layer0$C$L0
 62
     3
 10
145.1118264838
 20
147.7997131348
 11
155.0118203802
 21
147.7997131348
  0
LINE
  8
Layer0$C$L0
 62
     3
 10
154.1118264838
 20
150.1461334229
 11
145.9118295355
 21
150.1461334229
  0
LINE
  8
Layer0$C$L0
 62
     3
 10
154.1118264838
 20
148.8908691406
 11
145.9118295355
 21
148.8908691406
  0
LINE
  8
Layer0$C$L0
 62
     3
 10
154.1118264838
 20
148.2789306641
 11
145.9118295355
 21
148.2789306641
  0
LINE
  8
Layer0$C$L0
 62
     3
 10
153.8933969183
 20
149.6068572998
 11
146.2040353461
 21
149.6068572998
  0
LINE
  8
Layer0$C$L0
 62
     3
 10
145.7117410345
 20
150.5000000000
 11
154.2117410345
 21
150.5000000000
  0
TEXT
  8
Layer0$C$L0
 62
     5
 10
145.0000000000
 20
10.0000000000
 40
5.0000000000
  1
俵俙係亅俙侽係俆侽侾
 41
0.5165325082
 72
     5
 11
194.0705882801
 21
10.0000000000
  0
LINE
  8
Layer0$C$L0
 62
     3
 10
173.9116311713
 20
147.7997131348
 11
164.0116372748
 21
147.7997131348
  0
LINE
  8
Layer0$C$L0
 62
     3
 10
164.9116311713
 20
150.1461334229
 11
173.1116281195
 21
150.1461334229
  0
LINE
  8
Layer0$C$L0
 62
     3
 10
164.9116311713
 20
148.8908691406
 11
173.1116281195
 21
148.8908691406
  0
LINE
  8
Layer0$C$L0
 62
     3
 10
164.9116311713
 20
148.2789306641
 11
173.1116281195
 21
148.2789306641
  0
LINE
  8
Layer0$C$L0
 62
     3
 10
165.1300607367
 20
149.6068572998
 11
172.8194223090
 21
149.6068572998
  0
LINE
  8
Layer0$C$L0
 62
     3
 10
164.8117318793
 20
150.5000000000
 11
173.3117318793
 21
150.5000000000
  0
LINE
  8
Layer0$C$L0
  6
CENTER
 62
     3
 10
159.5117288275
 20
146.1897430420
 11
159.5117288275
 21
190.9022521973
  0
LINE
  8
Layer0$C$L0
 62
     3
 10
144.7117410345
 20
151.5000000000
 11
144.7117410345
 21
185.5000000000
  0
LINE
  8
Layer0$C$L0
 62
     3
 10
174.3117318793
 20
185.5000000000
 11
174.3117318793
 21
151.5000000000
  0
LINE
  8
Layer0$C$L0
 62
     3
 10
115.9150796576
 20
234.5999908447
 11
117.0117440863
 21
234.5999908447
  0
LINE
  8
Layer0$C$L0
 62
     3
 10
114.5573068304
 20
237.1999969482
 11
117.0117440863
 21
237.1999969482
  0
LINE
  8
Layer0$C$L0
 62
     3
 10
111.0117135687
 20
243.4999694824
 11
111.0117135687
 21
234.0999755859
  0
LINE
  8
Layer0$C$L0
 62
     3
 10
112.3117471381
 20
243.1999969482
 11
117.0117440863
 21
243.1999969482
  0
LINE
  8
Layer0$C$L0
 62
     3
 10
112.3117471381
 20
241.4999847412
 11
117.0117440863
 21
241.4999847412
  0
LINE
  8
Layer0$C$L0
 62
     3
 10
113.3561959906
 20
239.4999847412
 11
117.0117440863
 21
239.4999847412
  0
LINE
  8
Layer0$C$L0
 62
     3
 10
113.4084115668
 20
230.3999938965
 11
112.3117471381
 21
230.3999938965
  0
LINE
  8
Layer0$C$L0
 62
     3
 10
117.0117440863
 20
221.7999877930
 11
112.3117471381
 21
221.7999877930
  0
LINE
  8
Layer0$C$L0
 62
     3
 10
117.0117440863
 20
223.5000000000
 11
112.3117471381
 21
223.5000000000
  0
LINE
  8
Layer0$C$L0
 62
     3
 10
115.9672952338
 20
225.5000000000
 11
112.3117471381
 21
225.5000000000
  0
LINE
  8
Layer0$C$L0
 62
     3
 10
114.7281747504
 20
227.7999877930
 11
112.3117471381
 21
227.7999877930
  0
LINE
  8
Layer0$C$L0
 62
     3
 10
124.2117410345
 20
218.5000000000
 11
117.5117440863
 21
218.5000000000
  0
LINE
  8
Layer0$C$L0
 62
     3
 10
112.3117352928
 20
217.9999961314
 11
111.5117355595
 21
218.9999957980
  0
LINE
  8
Layer0$C$L0
 62
     3
 10
117.0117440863
 20
218.0000000000
 11
112.3117471381
 21
218.0000000000
  0
LINE
  8
Layer0$C$L0
 62
     3
 10
117.0117440863
 20
218.5000000000
 11
112.3117471381
 21
218.5000000000
  0
LINE
  8
Layer0$C$L0
 62
     3
 10
117.0117440863
 20
219.2999877930
 11
112.3117471381
 21
219.2999877930
  0
LINE
  8
Layer0$C$L0
 62
     3
 10
117.0117440863
 20
220.3999938965
 11
112.3117471381
 21
220.3999938965
  0
LINE
  8
Layer0$C$L0
 62
     3
 10
117.5117456496
 20
218.4999871260
 11
117.0117451188
 21
217.9999865952
  0
LINE
  8
Layer0$C$L0
 62
     3
 10
111.0117135687
 20
230.8999786377
 11
111.0117135687
 21
221.4999694824
  0
LINE
  8
Layer0$C$L0
 62
     3
 10
124.5117315015
 20
218.8000025499
 11
124.2117268672
 21
218.4999979156
  0
LINE
  8
Layer0$C$L0
 62
     3
 10
124.5117440863
 20
182.1999816895
 11
124.5117440863
 21
154.7999725342
  0
LINE
  8
Layer0$C$L0
 62
     3
 10
117.5117440863
 20
182.4999847412
 11
124.2117410345
 21
182.4999847412
  0
LINE
  8
Layer0$C$L0
 62
     3
 10
111.5117433230
 20
181.9999542982
 11
112.3117430563
 21
182.9999539648
  0
LINE
  8
Layer0$C$L0
 62
     3
 10
112.3117471381
 20
180.5999755859
 11
117.0117440863
 21
180.5999755859
  0
LINE
  8
Layer0$C$L0
 62
     3
 10
112.3117471381
 20
179.1999816895
 11
117.0117440863
 21
179.1999816895
  0
LINE
  8
Layer0$C$L0
 62
     3
 10
112.3117471381
 20
177.4999694824
 11
117.0117440863
 21
177.4999694824
  0
LINE
  8
Layer0$C$L0
 62
     3
 10
112.3117471381
 20
182.9999847412
 11
117.0117440863
 21
182.9999847412
  0
LINE
  8
Layer0$C$L0
 62
     3
 10
112.3117471381
 20
182.4999847412
 11
117.0117440863
 21
182.4999847412
  0
LINE
  8
Layer0$C$L0
 62
     3
 10
112.3117471381
 20
181.6999816895
 11
117.0117440863
 21
181.6999816895
  0
LINE
  8
Layer0$C$L0
 62
     3
 10
117.0117383753
 20
182.9999469425
 11
117.5117389061
 21
182.4999464117
  0
LINE
  8
Layer0$C$L0
 62
     3
 10
124.2117410345
 20
154.4999847412
 11
117.5117440863
 21
154.4999847412
  0
LINE
  8
Layer0$C$L0
 62
     3
 10
115.9150796576
 20
170.5999755859
 11
117.0117440863
 21
170.5999755859
  0
LINE
  8
Layer0$C$L0
 62
     3
 10
114.5573068304
 20
173.1999816895
 11
117.0117440863
 21
173.1999816895
  0
LINE
  8
Layer0$C$L0
 62
     3
 10
113.4084115668
 20
166.3999786377
 11
112.3117471381
 21
166.3999786377
  0
LINE
  8
Layer0$C$L0
 62
     3
 10
113.3561959906
 20
175.4999694824
 11
117.0117440863
 21
175.4999694824
  0
LINE
  8
Layer0$C$L0
 62
     3
 10
112.3117591417
 20
153.9999765901
 11
111.5117594084
 21
154.9999762568
  0
LINE
  8
Layer0$C$L0
 62
     3
 10
117.0117440863
 20
153.9999847412
 11
112.3117471381
 21
153.9999847412
  0
LINE
  8
Layer0$C$L0
 62
     3
 10
117.0117440863
 20
154.4999847412
 11
112.3117471381
 21
154.4999847412
  0
LINE
  8
Layer0$C$L0
 62
     3
 10
117.0117440863
 20
155.2999725342
 11
112.3117471381
 21
155.2999725342
  0
LINE
  8
Layer0$C$L0
 62
     3
 10
117.0117440863
 20
156.3999786377
 11
112.3117471381
 21
156.3999786377
  0
LINE
  8
Layer0$C$L0
 62
     3
 10
117.0117440863
 20
157.7999725342
 11
112.3117471381
 21
157.7999725342
  0
LINE
  8
Layer0$C$L0
 62
     3
 10
117.0117440863
 20
159.4999847412
 11
112.3117471381
 21
159.4999847412
  0
LINE
  8
Layer0$C$L0
 62
     3
 10
115.9672952338
 20
161.4999847412
 11
112.3117471381
 21
161.4999847412
  0
LINE
  8
Layer0$C$L0
 62
     3
 10
114.7281747504
 20
163.7999725342
 11
112.3117471381
 21
163.7999725342
  0
LINE
  8
Layer0$C$L0
 62
     3
 10
117.5117564392
 20
154.4999557994
 11
117.0117559084
 21
153.9999552686
  0
LINE
  8
Layer0$C$L0
 62
     3
 10
111.5117440863
 20
181.9999847412
 11
111.5117440863
 21
154.9999847412
  0
LINE
  8
Layer0$C$L0
 62
     3
 10
112.3117471381
 20
182.9999847412
 11
112.3117471381
 21
153.9999847412
  0
LINE
  8
Layer0$C$L0
 62
     3
 10
117.0117440863
 20
182.9999847412
 11
117.0117440863
 21
153.9999847412
  0
LINE
  8
Layer0$C$L0
 62
     3
 10
124.2117410345
 20
182.4999847412
 11
124.2117410345
 21
154.4999847412
  0
LINE
  8
Layer0$C$L0
 62
     3
 10
117.5117440863
 20
182.4999847412
 11
117.5117440863
 21
154.4999847412
  0
LINE
  8
Layer0$C$L0
 62
     3
 10
124.5117422911
 20
154.7999712233
 11
124.2117376568
 21
154.4999665890
  0
LINE
  8
Layer0$C$L0
 62
     3
 10
124.2117417029
 20
182.4999356221
 11
124.5117355476
 21
182.1999417774
  0
LINE
  8
Layer0$C$L0
 62
     3
 10
108.3917184515
 20
234.5999755859
 11
109.5117288275
 21
234.5999755859
  0
LINE
  8
Layer0$C$L0
 62
     3
 10
107.0050454779
 20
237.1999816895
 11
109.5117288275
 21
237.1999816895
  0
LINE
  8
Layer0$C$L0
 62
     3
 10
103.2117257758
 20
233.4999694824
 11
104.7117257758
 21
233.4999694824
  0
LINE
  8
Layer0$C$L0
 62
     3
 10
105.7783761664
 20
239.4999694824
 11
109.5117288275
 21
239.4999694824
  0
LINE
  8
Layer0$C$L0
 62
     3
 10
104.7117257758
 20
241.4999694824
 11
109.5117288275
 21
241.4999694824
  0
LINE
  8
Layer0$C$L0
 62
     3
 10
104.7117257758
 20
243.1999816895
 11
109.5117288275
 21
243.1999816895
  0
LINE
  8
Layer0$C$L0
 62
     3
 10
104.7117257758
 20
231.4999694824
 11
103.2117257758
 21
231.4999694824
  0
LINE
  8
Layer0$C$L0
 62
     3
 10
105.8317208929
 20
230.3999786377
 11
104.7117257758
 21
230.3999786377
  0
LINE
  8
Layer0$C$L0
 62
     3
 10
108.4450479193
 20
225.4999847412
 11
104.7117257758
 21
225.4999847412
  0
LINE
  8
Layer0$C$L0
 62
     3
 10
109.5117288275
 20
223.4999847412
 11
104.7117257758
 21
223.4999847412
  0
LINE
  8
Layer0$C$L0
 62
     3
 10
109.5117288275
 20
221.7999725342
 11
104.7117257758
 21
221.7999725342
  0
LINE
  8
Layer0$C$L0
 62
     3
 10
107.2183786078
 20
227.7999725342
 11
104.7117257758
 21
227.7999725342
  0
LINE
  8
Layer0$C$L0
 62
     3
 10
109.8117166205
 20
234.0999755859
 11
109.8117166205
 21
230.8999786377
  0
ARC
  8
Layer0$C$L0
 62
     3
 10
97.5117440863
 20
243.9999847412
 40
0.5000000000
 50
179.9999093863
 51
269.9999460417
  0
LINE
  8
Layer0$C$L0
 62
     3
 10
97.5117288275
 20
243.4999694824
 11
98.5117135687
 21
243.4999694824
  0
LINE
  8
Layer0$C$L0
 62
     3
 10
98.5117135687
 20
244.4999694824
 11
98.5117135687
 21
235.7499694824
  0
LINE
  8
Layer0$C$L0
 62
     3
 10
97.0117288275
 20
235.7499694824
 11
102.2117257758
 21
235.7499694824
  0
LINE
  8
Layer0$C$L0
 62
     3
 10
98.5117135687
 20
243.6999816895
 11
102.2117257758
 21
243.6999816895
  0
LINE
  8
Layer0$C$L0
 62
     3
 10
98.5117135687
 20
244.4999694824
 11
102.2117257758
 21
244.4999694824
  0
LINE
  8
Layer0$C$L0
 62
     3
 10
102.2117257758
 20
229.2499694824
 11
97.0117288275
 21
229.2499694824
  0
LINE
  8
Layer0$C$L0
 62
     3
 10
96.5117288275
 20
236.6999816895
 11
96.5117288275
 21
228.2999725342
  0
ARC
  8
Layer0$C$L0
 62
     3
 10
103.2117257758
 20
232.4999847412
 40
1.0000000000
 50
89.9999273724
 51
179.9999093863
  0
ARC
  8
Layer0$C$L0
 62
     3
 10
103.2117257758
 20
232.4999847412
 40
1.0000000000
 50
180.0000906137
 51
270.0000726276
  0
LINE
  8
Layer0$C$L0
 62
     3
 10
109.5117288275
 20
220.3999786377
 11
104.7117257758
 21
220.3999786377
  0
LINE
  8
Layer0$C$L0
 62
     3
 10
109.5117288275
 20
219.2999725342
 11
104.7117257758
 21
219.2999725342
  0
LINE
  8
Layer0$C$L0
 62
     3
 10
109.5117288275
 20
217.9999694824
 11
104.7117257758
 21
217.9999694824
  0
ARC
  8
Layer0$C$L0
 62
     3
 10
96.5117288275
 20
218.1999816895
 40
0.5000000000
 50
270.0000726276
 51
360.0000000000
  0
LINE
  8
Layer0$C$L0
 62
     3
 10
98.5117135687
 20
221.4999694824
 11
97.5117288275
 21
221.4999694824
  0
LINE
  8
Layer0$C$L0
 62
     3
 10
102.2117257758
 20
221.2999725342
 11
98.5117135687
 21
221.2999725342
  0
LINE
  8
Layer0$C$L0
 62
     3
 10
102.2117257758
 20
220.4999694824
 11
98.5117135687
 21
220.4999694824
  0
LINE
  8
Layer0$C$L0
 62
     3
 10
109.5117288275
 20
218.4999694824
 11
102.2117257758
 21
218.4999694824
  0
LINE
  8
Layer0$C$L0
 62
     3
 10
98.5117135687
 20
229.2499694824
 11
98.5117135687
 21
220.4999694824
  0
ARC
  8
Layer0$C$L0
 62
     3
 10
97.5117288275
 20
220.9999847412
 40
0.5000000000
 50
89.9999273724
 51
179.9999640278
  0
LINE
  8
Layer0$C$L0
 62
     3
 10
94.5117288275
 20
236.5999298096
 11
94.5117288275
 21
233.5999298096
  0
LINE
  8
Layer0$C$L0
 62
     3
 10
94.5106454535
 20
236.6000061035
 11
94.5106454535
 21
233.5999908447
  0
LINE
  8
Layer0$C$L0
 62
     3
 10
94.0117288275
 20
236.2748565674
 11
94.0117288275
 21
234.0493927002
  0
LINE
  8
Layer0$C$L0
 62
     3
 10
94.5117288275
 20
228.3499298096
 11
94.5117288275
 21
231.3499298096
  0
LINE
  8
Layer0$C$L0
 62
     3
 10
94.5106454535
 20
228.3999633789
 11
94.5106454535
 21
231.3999786377
  0
LINE
  8
Layer0$C$L0
 62
     3
 10
94.0117288275
 20
228.7250213623
 11
94.0117288275
 21
230.9504852295
  0
LINE
  8
Layer0$C$L0
 62
     3
 10
90.6117501898
 20
231.3999786377
 11
90.6117501898
 21
233.5999755859
  0
LINE
  8
Layer0$C$L0
 62
     3
 10
94.8117318793
 20
236.6999816895
 11
94.8117318793
 21
228.2999725342
  0
LINE
  8
Layer0$C$L0
 62
     3
 10
83.0117288275
 20
233.6499481201
 11
83.0117288275
 21
231.3499298096
  0
LINE
  8
Layer0$C$L0
 62
     3
 10
83.0117288275
 20
233.5999603271
 11
83.0117288275
 21
231.3999633789
  0
LINE
  8
Layer0$C$L0
 62
     3
 10
83.0117440863
 20
233.5999908447
 11
83.0117440863
 21
231.3999481201
  0
LINE
  8
Layer0$C$L0
 62
     3
 10
83.0117288275
 20
236.6499481201
 11
94.5117288275
 21
236.6499481201
  0
LINE
  8
Layer0$C$L0
 62
     3
 10
83.0117288275
 20
233.6499481201
 11
94.5117288275
 21
233.6499481201
  0
LINE
  8
Layer0$C$L0
 62
     3
 10
83.0117288275
 20
231.3499298096
 11
94.5117288275
 21
231.3499298096
  0
LINE
  8
Layer0$C$L0
 62
     3
 10
83.0117288275
 20
228.3499298096
 11
94.5117288275
 21
228.3499298096
  0
LINE
  8
Layer0$C$L0
 62
     3
 10
83.0117288275
 20
231.3999786377
 11
94.8117318793
 21
231.3999786377
  0
LINE
  8
Layer0$C$L0
 62
     3
 10
94.8117318793
 20
233.5999755859
 11
83.0117288275
 21
233.5999755859
  0
LINE
  8
Layer0$C$L0
 62
     3
 10
94.5118051215
 20
236.6000061035
 11
83.0117440863
 21
236.6000061035
  0
LINE
  8
Layer0$C$L0
 62
     3
 10
94.5106454535
 20
233.5999908447
 11
83.0117440863
 21
233.5999908447
  0
LINE
  8
Layer0$C$L0
 62
     3
 10
94.5118051215
 20
228.3999633789
 11
83.0118051215
 21
228.3999633789
  0
LINE
  8
Layer0$C$L0
 62
     3
 10
94.5106454535
 20
231.3999786377
 11
83.0117898627
 21
231.3999786377
  0
ARC
  8
Layer0$C$L0
 62
     3
 10
82.5117440863
 20
218.2999877930
 40
0.5000000000
 50
270.0000179861
 51
360.0000000000
  0
LINE
  8
Layer0$C$L0
 62
     3
 10
83.0117288275
 20
218.0999298096
 11
83.0117288275
 21
228.3499298096
  0
LINE
  8
Layer0$C$L0
 62
     3
 10
83.0117288275
 20
228.2999572754
 11
83.0117288275
 21
217.6999664307
  0
LINE
  8
Layer0$C$L0
 62
     3
 10
83.0117898627
 20
218.2999877930
 11
83.0117898627
 21
228.3999481201
  0
LINE
  8
Layer0$C$L0
 62
     3
 10
97.0117288275
 20
228.2999725342
 11
83.0117288275
 21
228.2999725342
  0
LINE
  8
Layer0$C$L0
 62
     3
 10
96.5117288275
 20
217.6999816895
 11
83.0117288275
 21
217.6999816895
  0
LINE
  8
Layer0$C$L0
 62
     3
 10
83.0117288275
 20
236.6999816895
 11
97.0117288275
 21
236.6999816895
  0
LINE
  8
Layer0$C$L0
 62
     3
 10
104.7117410345
 20
180.5999603271
 11
109.5117440863
 21
180.5999603271
  0
LINE
  8
Layer0$C$L0
 62
     3
 10
104.7117410345
 20
179.1999664307
 11
109.5117440863
 21
179.1999664307
  0
LINE
  8
Layer0$C$L0
 62
     3
 10
104.7117410345
 20
177.4999542236
 11
109.5117440863
 21
177.4999542236
  0
LINE
  8
Layer0$C$L0
 62
     3
 10
104.7117410345
 20
182.9999542236
 11
109.5117440863
 21
182.9999542236
  0
LINE
  8
Layer0$C$L0
 62
     3
 10
104.7117410345
 20
181.6999664307
 11
109.5117440863
 21
181.6999664307
  0
ARC
  8
Layer0$C$L0
 62
     3
 10
96.5117593451
 20
185.9999847412
 40
0.5000000000
 50
0.0000000000
 51
89.9999273724
  0
ARC
  8
Layer0$C$L0
 62
     3
 10
97.5117593451
 20
179.9999847412
 40
0.5000000000
 50
179.9999093863
 51
269.9999460417
  0
LINE
  8
Layer0$C$L0
 62
     3
 10
97.5117440863
 20
179.4999542236
 11
98.5117288275
 21
179.4999542236
  0
LINE
  8
Layer0$C$L0
 62
     3
 10
98.5117288275
 20
180.4999542236
 11
102.2117410345
 21
180.4999542236
  0
LINE
  8
Layer0$C$L0
 62
     3
 10
98.5117288275
 20
179.6999664307
 11
102.2117410345
 21
179.6999664307
  0
ARC
  8
Layer0$C$L0
 62
     3
 10
96.5117593451
 20
186.4999847412
 40
0.5000000000
 50
0.0000000000
 51
89.9999273724
  0
LINE
  8
Layer0$C$L0
 62
     3
 10
102.2117410345
 20
182.4999542236
 11
109.5117440863
 21
182.4999542236
  0
LINE
  8
Layer0$C$L0
 62
     3
 10
107.0050607367
 20
173.1999664307
 11
109.5117440863
 21
173.1999664307
  0
LINE
  8
Layer0$C$L0
 62
     3
 10
108.3917337103
 20
170.5999603271
 11
109.5117440863
 21
170.5999603271
  0
LINE
  8
Layer0$C$L0
 62
     3
 10
105.8317361517
 20
166.3999633789
 11
104.7117410345
 21
166.3999633789
  0
LINE
  8
Layer0$C$L0
 62
     3
 10
105.7783914252
 20
175.4999542236
 11
109.5117440863
 21
175.4999542236
  0
LINE
  8
Layer0$C$L0
 62
     3
 10
109.5117440863
 20
153.9999542236
 11
104.7117410345
 21
153.9999542236
  0
LINE
  8
Layer0$C$L0
 62
     3
 10
109.5117440863
 20
155.2999572754
 11
104.7117410345
 21
155.2999572754
  0
LINE
  8
Layer0$C$L0
 62
     3
 10
109.5117440863
 20
156.3999633789
 11
104.7117410345
 21
156.3999633789
  0
LINE
  8
Layer0$C$L0
 62
     3
 10
109.5117440863
 20
157.7999572754
 11
104.7117410345
 21
157.7999572754
  0
LINE
  8
Layer0$C$L0
 62
     3
 10
109.5117440863
 20
159.4999694824
 11
104.7117410345
 21
159.4999694824
  0
LINE
  8
Layer0$C$L0
 62
     3
 10
108.4450631781
 20
161.4999694824
 11
104.7117410345
 21
161.4999694824
  0
LINE
  8
Layer0$C$L0
 62
     3
 10
107.2183938666
 20
163.7999572754
 11
104.7117410345
 21
163.7999572754
  0
ARC
  8
Layer0$C$L0
 62
     3
 10
97.5117440863
 20
156.9999847412
 40
0.5000000000
 50
89.9999273724
 51
179.9999640278
  0
LINE
  8
Layer0$C$L0
 62
     3
 10
98.5117288275
 20
157.4999542236
 11
97.5117440863
 21
157.4999542236
  0
LINE
  8
Layer0$C$L0
 62
     3
 10
102.2117410345
 20
156.4999542236
 11
98.5117288275
 21
156.4999542236
  0
LINE
  8
Layer0$C$L0
 62
     3
 10
102.2117410345
 20
157.2999572754
 11
98.5117288275
 21
157.2999572754
  0
LINE
  8
Layer0$C$L0
 62
     3
 10
109.5117440863
 20
154.4999542236
 11
102.2117410345
 21
154.4999542236
  0
LINE
  8
Layer0$C$L0
 62
     3
 10
98.5117288275
 20
180.4999542236
 11
98.5117288275
 21
156.4999542236
  0
LINE
  8
Layer0$C$L0
 62
     3
 10
109.5117440863
 20
182.9999542236
 11
109.5117440863
 21
153.9999542236
  0
LINE
  8
Layer0$C$L0
 62
     3
 10
102.2117410345
 20
182.4999542236
 11
102.2117410345
 21
154.4999542236
  0
LINE
  8
Layer0$C$L0
 62
     3
 10
104.7117410345
 20
182.9999542236
 11
104.7117410345
 21
153.9999542236
  0
ARC
  8
Layer0$C$L0
 62
     3
 10
82.5117440863
 20
155.8124389648
 40
0.5000000000
 50
296.0000346467
 51
360.0000000000
  0
LINE
  8
Layer0$C$L0
 62
     3
 10
82.7117562933
 20
156.1184997559
 11
82.7117562933
 21
180.9360046387
  0
LINE
  8
Layer0$C$L0
 62
     3
 10
83.0117440863
 20
186.4999542236
 11
96.5117440863
 21
186.4999542236
  0
LINE
  8
Layer0$C$L0
 62
     3
 10
83.0117440863
 20
186.9999542236
 11
96.5117440863
 21
186.9999542236
  0
LINE
  8
Layer0$C$L0
 62
     3
 10
109.5117440863
 20
179.4999542236
 11
111.5117440863
 21
179.4999542236
  0
LINE
  8
Layer0$C$L0
 62
     3
 10
111.5117440863
 20
157.4999542236
 11
109.5117440863
 21
157.4999542236
  0
LINE
  8
Layer0$C$L0
 62
     3
 10
111.5117288275
 20
230.8999786377
 11
109.8117166205
 21
230.8999786377
  0
LINE
  8
Layer0$C$L0
 62
     3
 10
111.5117288275
 20
221.4999694824
 11
109.5117288275
 21
221.4999694824
  0
LINE
  8
Layer0$C$L0
 62
     3
 10
109.8117166205
 20
234.0999755859
 11
111.5117288275
 21
234.0999755859
  0
LINE
  8
Layer0$C$L0
 62
     3
 10
109.5117288275
 20
243.4999694824
 11
111.5117288275
 21
243.4999694824
  0
ARC
  8
Layer0$C$L0
 62
     3
 10
96.5117440863
 20
150.4999847412
 40
0.5000000000
 50
270.0000726276
 51
360.0000000000
  0
ARC
  8
Layer0$C$L0
 62
     3
 10
96.5117440863
 20
150.9999847412
 40
0.5000000000
 50
270.0000726276
 51
360.0000000000
  0
LINE
  8
Layer0$C$L0
 62
     3
 10
96.5117440863
 20
150.4999542236
 11
83.0117440863
 21
150.4999542236
  0
LINE
  8
Layer0$C$L0
 62
     3
 10
96.5117440863
 20
149.9999542236
 11
83.0117440863
 21
149.9999542236
  0
LINE
  8
Layer0$C$L0
 62
     3
 10
83.0117440863
 20
150.0000305176
 11
83.0117440863
 21
186.9998474121
  0
LINE
  8
Layer0$C$L0
 62
     3
 10
97.0117440863
 20
186.4999542236
 11
97.0117440863
 21
150.4999542236
  0
LINE
  8
Layer0$C$L0
 62
     3
 10
70.0117288275
 20
228.2999420166
 11
70.0117288275
 21
236.6999359131
  0
LINE
  8
Layer0$C$L0
 62
     3
 10
70.9884133978
 20
228.2999420166
 11
70.9884133978
 21
236.6999359131
  0
LINE
  8
Layer0$C$L0
 62
     3
 10
68.7117105170
 20
218.8999481201
 11
68.7117105170
 21
228.2999420166
  0
LINE
  8
Layer0$C$L0
 62
     3
 10
64.4779622259
 20
240.2925926914
 11
64.5697621243
 21
240.6867335941
  0
LINE
  8
Layer0$C$L0
 62
     3
 10
64.5123323623
 20
242.7856076892
 11
64.4524742570
 21
243.1675462946
  0
LINE
  8
Layer0$C$L0
 62
     3
 10
64.5483118381
 20
242.3883851722
 11
64.5123323623
 21
242.7856076892
  0
LINE
  8
Layer0$C$L0
 62
     3
 10
64.5597127483
 20
241.9836062141
 11
64.5483118381
 21
242.3883851722
  0
LINE
  8
Layer0$C$L0
 62
     3
 10
64.5463133024
 20
241.5791452862
 11
64.5597127483
 21
241.9836062141
  0
LINE
  8
Layer0$C$L0
 62
     3
 10
64.5083741700
 20
241.1828706730
 11
64.5463133024
 21
241.5791452862
  0
LINE
  8
Layer0$C$L0
 62
     3
 10
64.4466334098
 20
240.8024914045
 11
64.5083741700
 21
241.1828706730
  0
LINE
  8
Layer0$C$L0
 62
     3
 10
64.5696745737
 20
243.3136247443
 11
64.4778484042
 21
243.7077302899
  0
LINE
  8
Layer0$C$L0
 62
     3
 10
64.6366982120
 20
242.8916282608
 11
64.5696745737
 21
243.3136247443
  0
LINE
  8
Layer0$C$L0
 62
     3
 10
64.6774963199
 20
242.4507003751
 11
64.6366982120
 21
242.8916282608
  0
LINE
  8
Layer0$C$L0
 62
     3
 10
64.6912027003
 20
242.0002025609
 11
64.6774963199
 21
242.4507003751
  0
LINE
  8
Layer0$C$L0
 62
     3
 10
64.6775263490
 20
241.5496994742
 11
64.6912027003
 21
242.0002025609
  0
LINE
  8
Layer0$C$L0
 62
     3
 10
64.6367576326
 20
241.1087558828
 11
64.6775263490
 21
241.5496994742
  0
LINE
  8
Layer0$C$L0
 62
     3
 10
64.5697621243
 20
240.6867335941
 11
64.6367576326
 21
241.1087558828
  0
LINE
  8
Layer0$C$L0
 62
     3
 10
67.9217324896
 20
236.6999359131
 11
67.9217324896
 21
233.5999298096
  0
ARC
  8
Layer0$C$L0
 62
     3
 10
65.2954202338
 20
236.9999542236
 40
0.3000000119
 50
180.0000359722
 51
270.0000179861
  0
LINE
  8
Layer0$C$L0
 62
     3
 10
65.5117288275
 20
236.6999359131
 11
65.5117288275
 21
233.5999298096
  0
LINE
  8
Layer0$C$L0
 62
     3
 10
64.1434509436
 20
244.1497025512
 11
64.0039774935
 21
244.4012913394
  0
LINE
  8
Layer0$C$L0
 62
     3
 10
64.3631692927
 20
244.0655775232
 11
64.2280720264
 21
244.3795688808
  0
LINE
  8
Layer0$C$L0
 62
     3
 10
62.8163685277
 20
239.2373062937
 11
62.9896102506
 21
239.0622597018
  0
LINE
  8
Layer0$C$L0
 62
     3
 10
62.8837039873
 20
239.2395705343
 11
63.0654728053
 21
239.1352275010
  0
LINE
  8
Layer0$C$L0
 62
     3
 10
62.8967555424
 20
240.1142538668
 11
62.9541059746
 21
240.1026890042
  0
LINE
  8
Layer0$C$L0
 62
     3
 10
62.9542122249
 20
243.8972361508
 11
62.8968328635
 21
243.8856848458
  0
LINE
  8
Layer0$C$L0
 62
     3
 10
62.7106071135
 20
239.4035834052
 11
62.8837039873
 21
239.2395705343
  0
LINE
  8
Layer0$C$L0
 62
     3
 10
62.8398922853
 20
240.1348290123
 11
62.8967555424
 21
240.1142538668
  0
LINE
  8
Layer0$C$L0
 62
     3
 10
62.7837879082
 20
240.1643161281
 11
62.8398922853
 21
240.1348290123
  0
LINE
  8
Layer0$C$L0
 62
     3
 10
62.7287104899
 20
240.2025743185
 11
62.7837879082
 21
240.1643161281
  0
LINE
  8
Layer0$C$L0
 62
     3
 10
62.6749232022
 20
240.2494207776
 11
62.7287104899
 21
240.2025743185
  0
LINE
  8
Layer0$C$L0
 62
     3
 10
62.7287033176
 20
243.7973510899
 11
62.6748899625
 21
243.7504827386
  0
LINE
  8
Layer0$C$L0
 62
     3
 10
62.7838081143
 20
243.8356225928
 11
62.7287033176
 21
243.7973510899
  0
LINE
  8
Layer0$C$L0
 62
     3
 10
62.8399407894
 20
243.8651141970
 11
62.7838081143
 21
243.8356225928
  0
LINE
  8
Layer0$C$L0
 62
     3
 10
62.8968328635
 20
243.8856848458
 11
62.8399407894
 21
243.8651141970
  0
LINE
  8
Layer0$C$L0
 62
     3
 10
64.2282306342
 20
239.6206579206
 11
64.3633069690
 21
239.9347013000
  0
LINE
  8
Layer0$C$L0
 62
     3
 10
64.0756010682
 20
239.3571301037
 11
64.2282306342
 21
239.6206579206
  0
LINE
  8
Layer0$C$L0
 62
     3
 10
63.9086587956
 20
239.1497128883
 11
64.0756010682
 21
239.3571301037
  0
LINE
  8
Layer0$C$L0
 62
     3
 10
63.7309482186
 20
239.0028100124
 11
63.9086587956
 21
239.1497128883
  0
LINE
  8
Layer0$C$L0
 62
     3
 10
63.5462423643
 20
238.9195404155
 11
63.7309482186
 21
239.0028100124
  0
LINE
  8
Layer0$C$L0
 62
     3
 10
63.3584627789
 20
238.9016720198
 11
63.5462423643
 21
238.9195404155
  0
LINE
  8
Layer0$C$L0
 62
     3
 10
63.1715962678
 20
238.9495841945
 11
63.3584627789
 21
238.9016720198
  0
LINE
  8
Layer0$C$L0
 62
     3
 10
62.9896102506
 20
239.0622597018
 11
63.1715962678
 21
238.9495841945
  0
LINE
  8
Layer0$C$L0
 62
     3
 10
64.2662218935
 20
243.8562930819
 11
64.1434509436
 21
244.1497025512
  0
LINE
  8
Layer0$C$L0
 62
     3
 10
64.3699019871
 20
243.5267708479
 11
64.2662218935
 21
243.8562930819
  0
LINE
  8
Layer0$C$L0
 62
     3
 10
64.2569910301
 20
240.1185649464
 11
64.3622921114
 21
240.4454072864
  0
LINE
  8
Layer0$C$L0
 62
     3
 10
64.1327786673
 20
239.8283226958
 11
64.2569910301
 21
240.1185649464
  0
LINE
  8
Layer0$C$L0
 62
     3
 10
63.9920714202
 20
239.5803268369
 11
64.1327786673
 21
239.8283226958
  0
LINE
  8
Layer0$C$L0
 62
     3
 10
63.8376065734
 20
239.3794018207
 11
63.9920714202
 21
239.5803268369
  0
LINE
  8
Layer0$C$L0
 62
     3
 10
63.0654728053
 20
239.1352275010
 11
63.2519843617
 21
239.0928098365
  0
LINE
  8
Layer0$C$L0
 62
     3
 10
63.8150591570
 20
242.3768540837
 11
63.8022647128
 21
242.4998514764
  0
LINE
  8
Layer0$C$L0
 62
     3
 10
63.8242399301
 20
242.2521882904
 11
63.8150591570
 21
242.3768540837
  0
LINE
  8
Layer0$C$L0
 62
     3
 10
63.8297663920
 20
242.1264059475
 11
63.8242399301
 21
242.2521882904
  0
LINE
  8
Layer0$C$L0
 62
     3
 10
63.8316140792
 20
242.0000638481
 11
63.8297663920
 21
242.1264059475
  0
LINE
  8
Layer0$C$L0
 62
     3
 10
63.8297748124
 20
241.8737212635
 11
63.8316140792
 21
242.0000638481
  0
LINE
  8
Layer0$C$L0
 62
     3
 10
63.8242567336
 20
241.7479374669
 11
63.8297748124
 21
241.8737212635
  0
LINE
  8
Layer0$C$L0
 62
     3
 10
63.8150842693
 20
241.6232692581
 11
63.8242567336
 21
241.7479374669
  0
LINE
  8
Layer0$C$L0
 62
     3
 10
63.8022980227
 20
241.5002684984
 11
63.8150842693
 21
241.6232692581
  0
LINE
  8
Layer0$C$L0
 62
     3
 10
63.1165028797
 20
240.2184573746
 11
63.1267166491
 21
240.1217313409
  0
LINE
  8
Layer0$C$L0
 62
     3
 10
63.1068297649
 20
240.3154582169
 11
63.1165028797
 21
240.2184573746
  0
LINE
  8
Layer0$C$L0
 62
     3
 10
63.0976987967
 20
240.4127189049
 11
63.1068297649
 21
240.3154582169
  0
LINE
  8
Layer0$C$L0
 62
     3
 10
63.0891113836
 20
240.5102244352
 11
63.0976987967
 21
240.4127189049
  0
LINE
  8
Layer0$C$L0
 62
     3
 10
63.0810688504
 20
240.6079597671
 11
63.0891113836
 21
240.5102244352
  0
LINE
  8
Layer0$C$L0
 62
     3
 10
63.0735724377
 20
240.7059098240
 11
63.0810688504
 21
240.6079597671
  0
LINE
  8
Layer0$C$L0
 62
     3
 10
63.0666233018
 20
240.8040594966
 11
63.0735724377
 21
240.7059098240
  0
LINE
  8
Layer0$C$L0
 62
     3
 10
63.0602225147
 20
240.9023936444
 11
63.0666233018
 21
240.8040594966
  0
LINE
  8
Layer0$C$L0
 62
     3
 10
63.0665834037
 20
243.1953287297
 11
63.0601894059
 21
243.0970500300
  0
LINE
  8
Layer0$C$L0
 62
     3
 10
63.0735251284
 20
243.2934232455
 11
63.0665834037
 21
243.1953287297
  0
LINE
  8
Layer0$C$L0
 62
     3
 10
63.0810135103
 20
243.3913184630
 11
63.0735251284
 21
243.2934232455
  0
LINE
  8
Layer0$C$L0
 62
     3
 10
63.0890473957
 20
243.4889992985
 11
63.0810135103
 21
243.3913184630
  0
LINE
  8
Layer0$C$L0
 62
     3
 10
63.0976255467
 20
243.5864507012
 11
63.0890473957
 21
243.4889992985
  0
LINE
  8
Layer0$C$L0
 62
     3
 10
63.1067466415
 20
243.6836576557
 11
63.0976255467
 21
243.5864507012
  0
LINE
  8
Layer0$C$L0
 62
     3
 10
63.1164092748
 20
243.7806051845
 11
63.1067466415
 21
243.6836576557
  0
LINE
  8
Layer0$C$L0
 62
     3
 10
63.1266119577
 20
243.8772783497
 11
63.1164092748
 21
243.7806051845
  0
LINE
  8
Layer0$C$L0
 62
     3
 10
63.3325171374
 20
242.5114832048
 11
63.3984779890
 21
242.4999542236
  0
LINE
  8
Layer0$C$L0
 62
     3
 10
63.2690911274
 20
242.5456270228
 11
63.3325171374
 21
242.5114832048
  0
LINE
  8
Layer0$C$L0
 62
     3
 10
63.2106373841
 20
242.6010735503
 11
63.2690911274
 21
242.5456270228
  0
LINE
  8
Layer0$C$L0
 62
     3
 10
63.1594022510
 20
242.6756920092
 11
63.2106373841
 21
242.6010735503
  0
LINE
  8
Layer0$C$L0
 62
     3
 10
63.1173546649
 20
242.7666148551
 11
63.1594022510
 21
242.6756920092
  0
LINE
  8
Layer0$C$L0
 62
     3
 10
63.0861104903
 20
242.8703479755
 11
63.1173546649
 21
242.7666148551
  0
LINE
  8
Layer0$C$L0
 62
     3
 10
63.0668704228
 20
242.9829049663
 11
63.0861104903
 21
242.8703479755
  0
LINE
  8
Layer0$C$L0
 62
     3
 10
63.0603738470
 20
243.0999603271
 11
63.0668704228
 21
242.9829049663
  0
LINE
  8
Layer0$C$L0
 62
     3
 10
63.0668704228
 20
241.0166983052
 11
63.0603738470
 21
240.8996429443
  0
LINE
  8
Layer0$C$L0
 62
     3
 10
63.0861104903
 20
241.1292552960
 11
63.0668704228
 21
241.0166983052
  0
LINE
  8
Layer0$C$L0
 62
     3
 10
63.1173546649
 20
241.2329884164
 11
63.0861104903
 21
241.1292552960
  0
LINE
  8
Layer0$C$L0
 62
     3
 10
63.1594022510
 20
241.3239112623
 11
63.1173546649
 21
241.2329884164
  0
LINE
  8
Layer0$C$L0
 62
     3
 10
63.2106373841
 20
241.3985297212
 11
63.1594022510
 21
241.3239112623
  0
LINE
  8
Layer0$C$L0
 62
     3
 10
63.2690911274
 20
241.4539762487
 11
63.2106373841
 21
241.3985297212
  0
LINE
  8
Layer0$C$L0
 62
     3
 10
63.3325171374
 20
241.4881200667
 11
63.2690911274
 21
241.4539762487
  0
LINE
  8
Layer0$C$L0
 62
     3
 10
63.3984779890
 20
241.4996490479
 11
63.3325171374
 21
241.4881200667
  0
LINE
  8
Layer0$C$L0
 62
     3
 10
63.0691712149
 20
240.1067678481
 11
63.1263362165
 21
240.1223920650
  0
LINE
  8
Layer0$C$L0
 62
     3
 10
63.0116695491
 20
240.1001896839
 11
63.0691712149
 21
240.1067678481
  0
LINE
  8
Layer0$C$L0
 62
     3
 10
62.9541059746
 20
240.1026890042
 11
63.0116695491
 21
240.1001896839
  0
LINE
  8
Layer0$C$L0
 62
     3
 10
63.0118044314
 20
243.8997128629
 11
62.9542122249
 21
243.8972361508
  0
LINE
  8
Layer0$C$L0
 62
     3
 10
63.0693340227
 20
243.8931031360
 11
63.0118044314
 21
243.8997128629
  0
LINE
  8
Layer0$C$L0
 62
     3
 10
63.1265258380
 20
243.8774385842
 11
63.0693340227
 21
243.8931031360
  0
LINE
  8
Layer0$C$L0
 62
     3
 10
63.2522651179
 20
239.0927411102
 11
63.8106724102
 21
239.0601651058
  0
LINE
  8
Layer0$C$L0
 62
     3
 10
63.8022561713
 20
241.4999542236
 11
63.3984780951
 21
241.4999542236
  0
LINE
  8
Layer0$C$L0
 62
     3
 10
63.8022866888
 20
242.4999542236
 11
63.3984780951
 21
242.4999542236
  0
LINE
  8
Layer0$C$L0
 62
     3
 10
62.5502757477
 20
244.3767136155
 11
62.4054394826
 21
244.1053140856
  0
LINE
  8
Layer0$C$L0
 62
     3
 10
62.4051278529
 20
239.8952239076
 11
62.5499239326
 21
239.6237207292
  0
LINE
  8
Layer0$C$L0
 62
     3
 10
62.2793488591
 20
240.2122239914
 11
62.4051278529
 21
239.8952239076
  0
LINE
  8
Layer0$C$L0
 62
     3
 10
62.1753058528
 20
240.5678685482
 11
62.2793488591
 21
240.2122239914
  0
LINE
  8
Layer0$C$L0
 62
     3
 10
62.0952478799
 20
240.9544697867
 11
62.1753058528
 21
240.5678685482
  0
LINE
  8
Layer0$C$L0
 62
     3
 10
62.0409055137
 20
241.3636707409
 11
62.0952478799
 21
240.9544697867
  0
LINE
  8
Layer0$C$L0
 62
     3
 10
62.0134534459
 20
241.7866259178
 11
62.0409055137
 21
241.3636707409
  0
LINE
  8
Layer0$C$L0
 62
     3
 10
62.0134850942
 20
242.2141925063
 11
62.0134534459
 21
241.7866259178
  0
LINE
  8
Layer0$C$L0
 62
     3
 10
62.0409997746
 20
242.6371280127
 11
62.0134850942
 21
242.2141925063
  0
LINE
  8
Layer0$C$L0
 62
     3
 10
62.0954027158
 20
243.0462900511
 11
62.0409997746
 21
242.6371280127
  0
LINE
  8
Layer0$C$L0
 62
     3
 10
62.1755179167
 20
243.4328339698
 11
62.0954027158
 21
243.0462900511
  0
LINE
  8
Layer0$C$L0
 62
     3
 10
62.2796135669
 20
243.7884040415
 11
62.1755179167
 21
243.4328339698
  0
LINE
  8
Layer0$C$L0
 62
     3
 10
62.4054394826
 20
244.1053140856
 11
62.2796135669
 21
243.7884040415
  0
LINE
  8
Layer0$C$L0
 62
     3
 10
62.6595078130
 20
240.4105210422
 11
62.6670723734
 21
240.3296325923
  0
LINE
  8
Layer0$C$L0
 62
     3
 10
62.6523190722
 20
240.4915790224
 11
62.6595078130
 21
240.4105210422
  0
LINE
  8
Layer0$C$L0
 62
     3
 10
62.6455069177
 20
240.5727978871
 11
62.6523190722
 21
240.4915790224
  0
LINE
  8
Layer0$C$L0
 62
     3
 10
62.6390720761
 20
240.6541689735
 11
62.6455069177
 21
240.5727978871
  0
LINE
  8
Layer0$C$L0
 62
     3
 10
62.6330152337
 20
240.7356836025
 11
62.6390720761
 21
240.6541689735
  0
LINE
  8
Layer0$C$L0
 62
     3
 10
62.6273370366
 20
240.8173330796
 11
62.6330152337
 21
240.7356836025
  0
LINE
  8
Layer0$C$L0
 62
     3
 10
62.6220380904
 20
240.8991086961
 11
62.6273370366
 21
240.8173330796
  0
LINE
  8
Layer0$C$L0
 62
     3
 10
62.6273291784
 20
243.1823912082
 11
62.6220353309
 21
243.1006882880
  0
LINE
  8
Layer0$C$L0
 62
     3
 10
62.6330016015
 20
243.2639682335
 11
62.6273291784
 21
243.1823912082
  0
LINE
  8
Layer0$C$L0
 62
     3
 10
62.6390519965
 20
243.3454106784
 11
62.6330016015
 21
243.2639682335
  0
LINE
  8
Layer0$C$L0
 62
     3
 10
62.6454797190
 20
243.4267098716
 11
62.6390519965
 21
243.3454106784
  0
LINE
  8
Layer0$C$L0
 62
     3
 10
62.6522840847
 20
243.5078571571
 11
62.6454797190
 21
243.4267098716
  0
LINE
  8
Layer0$C$L0
 62
     3
 10
62.6594643693
 20
243.5888438951
 11
62.6522840847
 21
243.5078571571
  0
LINE
  8
Layer0$C$L0
 62
     3
 10
62.6670198080
 20
243.6696614628
 11
62.6594643693
 21
243.5888438951
  0
LINE
  8
Layer0$C$L0
 62
     3
 10
62.6184530191
 20
242.9832812764
 11
62.6220191731
 21
243.1004422771
  0
LINE
  8
Layer0$C$L0
 62
     3
 10
62.6077895872
 20
242.8705999095
 11
62.6184530191
 21
242.9832812764
  0
LINE
  8
Layer0$C$L0
 62
     3
 10
62.5904393497
 20
242.7667356731
 11
62.6077895872
 21
242.8705999095
  0
LINE
  8
Layer0$C$L0
 62
     3
 10
62.5670701775
 20
242.6756866617
 11
62.5904393497
 21
242.7667356731
  0
LINE
  8
Layer0$C$L0
 62
     3
 10
62.5385816310
 20
242.6009576674
 11
62.5670701775
 21
242.6756866617
  0
LINE
  8
Layer0$C$L0
 62
     3
 10
62.5060703331
 20
242.5454252682
 11
62.5385816310
 21
242.6009576674
  0
LINE
  8
Layer0$C$L0
 62
     3
 10
62.4707877565
 20
242.5112270989
 11
62.5060703331
 21
242.5454252682
  0
LINE
  8
Layer0$C$L0
 62
     3
 10
62.4340920498
 20
242.4996795654
 11
62.4707877565
 21
242.5112270989
  0
LINE
  8
Layer0$C$L0
 62
     3
 10
62.4709546012
 20
241.4879755160
 11
62.4340615322
 21
241.4996490479
  0
LINE
  8
Layer0$C$L0
 62
     3
 10
62.5064127016
 20
241.4534090811
 11
62.4709546012
 21
241.4879755160
  0
LINE
  8
Layer0$C$L0
 62
     3
 10
62.5390561054
 20
241.3972947750
 11
62.5064127016
 21
241.4534090811
  0
LINE
  8
Layer0$C$L0
 62
     3
 10
62.5676146090
 20
241.3218160896
 11
62.5390561054
 21
241.3972947750
  0
LINE
  8
Layer0$C$L0
 62
     3
 10
62.5909769580
 20
241.2299100137
 11
62.5676146090
 21
241.3218160896
  0
LINE
  8
Layer0$C$L0
 62
     3
 10
62.6082340883
 20
241.1251527506
 11
62.5909769580
 21
241.2299100137
  0
LINE
  8
Layer0$C$L0
 62
     3
 10
62.6187144993
 20
241.0116205626
 11
62.6082340883
 21
241.1251527506
  0
LINE
  8
Layer0$C$L0
 62
     3
 10
62.6220103823
 20
240.8937311575
 11
62.6187144993
 21
241.0116205626
  0
LINE
  8
Layer0$C$L0
 62
     3
 10
62.1823669790
 20
241.6230546439
 11
62.1951613888
 21
241.5000574661
  0
LINE
  8
Layer0$C$L0
 62
     3
 10
62.1731862274
 20
241.7477202148
 11
62.1823669790
 21
241.6230546439
  0
LINE
  8
Layer0$C$L0
 62
     3
 10
62.1676597738
 20
241.8735023312
 11
62.1731862274
 21
241.7477202148
  0
LINE
  8
Layer0$C$L0
 62
     3
 10
62.1658120817
 20
241.9998442028
 11
62.1676597738
 21
241.8735023312
  0
LINE
  8
Layer0$C$L0
 62
     3
 10
62.1676513303
 20
242.1261865613
 11
62.1658120817
 21
241.9998442028
  0
LINE
  8
Layer0$C$L0
 62
     3
 10
62.1731693778
 20
242.2519701366
 11
62.1676513303
 21
242.1261865613
  0
LINE
  8
Layer0$C$L0
 62
     3
 10
62.1823417978
 20
242.3766381319
 11
62.1731693778
 21
242.2519701366
  0
LINE
  8
Layer0$C$L0
 62
     3
 10
62.1951279876
 20
242.4996386887
 11
62.1823417978
 21
242.3766381319
  0
ARC
  8
Layer0$C$L0
 62
     3
 10
57.5117288275
 20
241.9999542236
 40
5.0000000000
 50
336.9260807760
 51
340.7948160352
  0
ARC
  8
Layer0$C$L0
 62
     3
 10
57.5117288275
 20
241.9999542236
 40
5.0000000000
 50
19.2047365875
 51
23.0739158089
  0
LINE
  8
Layer0$C$L0
 62
     3
 10
62.4343362494
 20
242.4999542236
 11
62.1951394720
 21
242.4999542236
  0
LINE
  8
Layer0$C$L0
 62
     3
 10
62.4340615912
 20
241.4999542236
 11
62.1951394720
 21
241.4999542236
  0
LINE
  8
Layer0$C$L0
 62
     3
 10
62.6555492468
 20
239.4710075028
 11
62.8163685277
 21
239.2373062937
  0
LINE
  8
Layer0$C$L0
 62
     3
 10
62.5499239326
 20
239.6237207292
 11
62.7106071135
 21
239.4035834052
  0
LINE
  8
Layer0$C$L0
 62
     3
 10
62.6670723734
 20
240.3296325923
 11
62.6750119465
 21
240.2489223003
  0
LINE
  8
Layer0$C$L0
 62
     3
 10
62.6749495966
 20
243.7503012557
 11
62.6670198080
 21
243.6696614628
  0
ARC
  8
Layer0$C$L0
 62
     3
 10
63.3117166205
 20
236.9999542236
 40
0.3000000119
 50
180.0000359722
 51
270.0000179861
  0
LINE
  8
Layer0$C$L0
 62
     3
 10
63.0117288275
 20
237.8999481201
 11
63.0117288275
 21
236.9999542236
  0
ARC
  8
Layer0$C$L0
 62
     3
 10
62.4117227240
 20
238.1999359131
 40
0.3000000119
 50
180.0000359722
 51
270.0000179861
  0
LINE
  8
Layer0$C$L0
 62
     3
 10
62.1117349310
 20
238.1999359131
 11
62.1117349310
 21
240.0403594971
  0
LINE
  8
Layer0$C$L0
 62
     3
 10
64.3633069690
 20
239.9347013000
 11
64.4779622259
 21
240.2925926914
  0
LINE
  8
Layer0$C$L0
 62
     3
 10
64.4524742570
 20
243.1675462946
 11
64.3699019871
 21
243.5267708479
  0
LINE
  8
Layer0$C$L0
 62
     3
 10
64.3622921114
 20
240.4454072864
 11
64.4466334098
 21
240.8024914045
  0
LINE
  8
Layer0$C$L0
 62
     3
 10
64.4778484042
 20
243.7077302899
 11
64.3631692927
 21
244.0655775232
  0
LINE
  8
Layer0$C$L0
 62
     3
 10
67.9217324896
 20
228.2999420166
 11
67.9217324896
 21
231.3999481201
  0
ARC
  8
Layer0$C$L0
 62
     3
 10
65.2954202338
 20
227.9999237061
 40
0.3000000119
 50
89.9999820139
 51
179.9999640278
  0
LINE
  8
Layer0$C$L0
 62
     3
 10
65.5117288275
 20
228.2999420166
 11
65.5117288275
 21
231.3999481201
  0
LINE
  8
Layer0$C$L0
 62
     3
 10
64.5697395074
 20
224.3131443356
 11
64.4779426351
 21
224.7072852383
  0
LINE
  8
Layer0$C$L0
 62
     3
 10
64.6367321458
 20
223.8911220468
 11
64.5697395074
 21
224.3131443356
  0
LINE
  8
Layer0$C$L0
 62
     3
 10
64.6774982094
 20
223.4501784555
 11
64.6367321458
 21
223.8911220468
  0
LINE
  8
Layer0$C$L0
 62
     3
 10
64.6911721815
 20
222.9996753688
 11
64.6774982094
 21
223.4501784555
  0
LINE
  8
Layer0$C$L0
 62
     3
 10
64.6774637458
 20
222.5491775546
 11
64.6911721815
 21
222.9996753688
  0
LINE
  8
Layer0$C$L0
 62
     3
 10
64.6366639503
 20
222.1082496689
 11
64.6774637458
 21
222.5491775546
  0
LINE
  8
Layer0$C$L0
 62
     3
 10
64.5696390278
 20
221.6862531854
 11
64.6366639503
 21
222.1082496689
  0
LINE
  8
Layer0$C$L0
 62
     3
 10
64.5083827445
 20
223.8170072567
 11
64.4466459759
 21
224.1973865252
  0
LINE
  8
Layer0$C$L0
 62
     3
 10
64.5463177184
 20
223.4207326435
 11
64.5083827445
 21
223.8170072567
  0
LINE
  8
Layer0$C$L0
 62
     3
 10
64.5597129198
 20
223.0162717156
 11
64.5463177184
 21
223.4207326435
  0
LINE
  8
Layer0$C$L0
 62
     3
 10
64.5483077619
 20
222.6114927574
 11
64.5597129198
 21
223.0162717156
  0
LINE
  8
Layer0$C$L0
 62
     3
 10
64.5123241177
 20
222.2142702405
 11
64.5483077619
 21
222.6114927574
  0
LINE
  8
Layer0$C$L0
 62
     3
 10
64.4524620043
 20
221.8323316350
 11
64.5123241177
 21
222.2142702405
  0
ARC
  8
Layer0$C$L0
 62
     3
 10
63.3117166205
 20
227.9999237061
 40
0.3000000119
 50
89.9999820139
 51
179.9999640278
  0
LINE
  8
Layer0$C$L0
 62
     3
 10
63.5117288275
 20
231.6407928467
 11
63.5117288275
 21
232.3040618896
  0
LINE
  8
Layer0$C$L0
 62
     3
 10
62.9540746614
 20
224.8971889254
 11
62.8967232714
 21
224.8856240628
  0
LINE
  8
Layer0$C$L0
 62
     3
 10
62.9896143243
 20
225.9376182279
 11
62.8163737895
 21
225.7625716360
  0
LINE
  8
Layer0$C$L0
 62
     3
 10
63.0655028676
 20
225.8646504287
 11
62.8837329546
 21
225.7603073953
  0
LINE
  8
Layer0$C$L0
 62
     3
 10
62.7286758497
 20
224.7973036112
 11
62.6748879528
 21
224.7504571521
  0
LINE
  8
Layer0$C$L0
 62
     3
 10
62.7837539697
 20
224.8355618016
 11
62.7286758497
 21
224.7973036112
  0
LINE
  8
Layer0$C$L0
 62
     3
 10
62.8398591378
 20
224.8650489174
 11
62.7837539697
 21
224.8355618016
  0
LINE
  8
Layer0$C$L0
 62
     3
 10
62.8967232714
 20
224.8856240628
 11
62.8398591378
 21
224.8650489174
  0
LINE
  8
Layer0$C$L0
 62
     3
 10
62.8837329546
 20
225.7603073953
 11
62.7106343596
 21
225.5962945245
  0
LINE
  8
Layer0$C$L0
 62
     3
 10
63.8150809413
 20
223.3766086716
 11
63.8022934726
 21
223.4996094313
  0
LINE
  8
Layer0$C$L0
 62
     3
 10
63.8242545749
 20
223.2519404627
 11
63.8150809413
 21
223.3766086716
  0
LINE
  8
Layer0$C$L0
 62
     3
 10
63.8297737649
 20
223.1261566662
 11
63.8242545749
 21
223.2519404627
  0
LINE
  8
Layer0$C$L0
 62
     3
 10
63.8316140800
 20
222.9998140815
 11
63.8297737649
 21
223.1261566662
  0
LINE
  8
Layer0$C$L0
 62
     3
 10
63.8297673737
 20
222.8734719822
 11
63.8316140800
 21
222.9998140815
  0
LINE
  8
Layer0$C$L0
 62
     3
 10
63.8242418207
 20
222.7476896393
 11
63.8297673737
 21
222.8734719822
  0
LINE
  8
Layer0$C$L0
 62
     3
 10
63.8150618807
 20
222.6230238460
 11
63.8242418207
 21
222.7476896393
  0
LINE
  8
Layer0$C$L0
 62
     3
 10
63.8022681899
 20
222.5000264532
 11
63.8150618807
 21
222.6230238460
  0
LINE
  8
Layer0$C$L0
 62
     3
 10
63.0666233018
 20
224.1958184331
 11
63.0602225147
 21
224.0974842853
  0
LINE
  8
Layer0$C$L0
 62
     3
 10
63.0735724377
 20
224.2939681057
 11
63.0666233018
 21
224.1958184331
  0
LINE
  8
Layer0$C$L0
 62
     3
 10
63.0810688504
 20
224.3919181626
 11
63.0735724377
 21
224.2939681057
  0
LINE
  8
Layer0$C$L0
 62
     3
 10
63.0891113836
 20
224.4896534945
 11
63.0810688504
 21
224.3919181626
  0
LINE
  8
Layer0$C$L0
 62
     3
 10
63.0976987967
 20
224.5871590248
 11
63.0891113836
 21
224.4896534945
  0
LINE
  8
Layer0$C$L0
 62
     3
 10
63.1068297649
 20
224.6844197127
 11
63.0976987967
 21
224.5871590248
  0
LINE
  8
Layer0$C$L0
 62
     3
 10
63.1165028797
 20
224.7814205551
 11
63.1068297649
 21
224.6844197127
  0
LINE
  8
Layer0$C$L0
 62
     3
 10
63.1267166491
 20
224.8781465888
 11
63.1165028797
 21
224.7814205551
  0
LINE
  8
Layer0$C$L0
 62
     3
 10
63.0668704228
 20
222.0169729634
 11
63.0603738470
 21
221.8999176025
  0
LINE
  8
Layer0$C$L0
 62
     3
 10
63.0861104903
 20
222.1295299542
 11
63.0668704228
 21
222.0169729634
  0
LINE
  8
Layer0$C$L0
 62
     3
 10
63.1173546649
 20
222.2332630746
 11
63.0861104903
 21
222.1295299542
  0
LINE
  8
Layer0$C$L0
 62
     3
 10
63.1594022510
 20
222.3241859205
 11
63.1173546649
 21
222.2332630746
  0
LINE
  8
Layer0$C$L0
 62
     3
 10
63.2106373841
 20
222.3988043794
 11
63.1594022510
 21
222.3241859205
  0
LINE
  8
Layer0$C$L0
 62
     3
 10
63.2690911274
 20
222.4542509069
 11
63.2106373841
 21
222.3988043794
  0
LINE
  8
Layer0$C$L0
 62
     3
 10
63.3325171374
 20
222.4883947249
 11
63.2690911274
 21
222.4542509069
  0
LINE
  8
Layer0$C$L0
 62
     3
 10
63.3984779890
 20
222.4999237061
 11
63.3325171374
 21
222.4883947249
  0
LINE
  8
Layer0$C$L0
 62
     3
 10
63.3325171374
 20
223.5117578630
 11
63.3984779890
 21
223.5002288818
  0
LINE
  8
Layer0$C$L0
 62
     3
 10
63.2690911274
 20
223.5459016810
 11
63.3325171374
 21
223.5117578630
  0
LINE
  8
Layer0$C$L0
 62
     3
 10
63.2106373841
 20
223.6013482085
 11
63.2690911274
 21
223.5459016810
  0
LINE
  8
Layer0$C$L0
 62
     3
 10
63.1594022510
 20
223.6759666674
 11
63.2106373841
 21
223.6013482085
  0
LINE
  8
Layer0$C$L0
 62
     3
 10
63.1173546649
 20
223.7668895133
 11
63.1594022510
 21
223.6759666674
  0
LINE
  8
Layer0$C$L0
 62
     3
 10
63.0861104903
 20
223.8706226337
 11
63.1173546649
 21
223.7668895133
  0
LINE
  8
Layer0$C$L0
 62
     3
 10
63.0668704228
 20
223.9831796245
 11
63.0861104903
 21
223.8706226337
  0
LINE
  8
Layer0$C$L0
 62
     3
 10
63.0603738470
 20
224.1002349854
 11
63.0668704228
 21
223.9831796245
  0
LINE
  8
Layer0$C$L0
 62
     3
 10
63.0116392705
 20
224.8996882458
 11
62.9540746614
 21
224.8971889254
  0
LINE
  8
Layer0$C$L0
 62
     3
 10
63.0691420425
 20
224.8931100816
 11
63.0116392705
 21
224.8996882458
  0
LINE
  8
Layer0$C$L0
 62
     3
 10
63.1263082168
 20
224.8774858647
 11
63.0691420425
 21
224.8931100816
  0
LINE
  8
Layer0$C$L0
 62
     3
 10
63.1715987431
 20
226.0502937352
 11
62.9896143243
 21
225.9376182279
  0
LINE
  8
Layer0$C$L0
 62
     3
 10
63.3584632792
 20
226.0982059099
 11
63.1715987431
 21
226.0502937352
  0
LINE
  8
Layer0$C$L0
 62
     3
 10
63.5462405551
 20
226.0803375142
 11
63.3584632792
 21
226.0982059099
  0
LINE
  8
Layer0$C$L0
 62
     3
 10
63.7309438142
 20
225.9970679173
 11
63.5462405551
 21
226.0803375142
  0
LINE
  8
Layer0$C$L0
 62
     3
 10
63.9086515657
 20
225.8501650414
 11
63.7309438142
 21
225.9970679173
  0
LINE
  8
Layer0$C$L0
 62
     3
 10
64.0755908422
 20
225.6427478260
 11
63.9086515657
 21
225.8501650414
  0
LINE
  8
Layer0$C$L0
 62
     3
 10
64.2282173054
 20
225.3792200091
 11
64.0755908422
 21
225.6427478260
  0
LINE
  8
Layer0$C$L0
 62
     3
 10
64.3632904963
 20
225.0651766297
 11
64.2282173054
 21
225.3792200091
  0
LINE
  8
Layer0$C$L0
 62
     3
 10
63.9920968117
 20
225.4195510928
 11
63.8376340734
 21
225.6204761090
  0
LINE
  8
Layer0$C$L0
 62
     3
 10
64.1328014563
 20
225.1715552338
 11
63.9920968117
 21
225.4195510928
  0
LINE
  8
Layer0$C$L0
 62
     3
 10
64.2570107733
 20
224.8813129833
 11
64.1328014563
 21
225.1715552338
  0
LINE
  8
Layer0$C$L0
 62
     3
 10
64.3623084248
 20
224.5544706433
 11
64.2570107733
 21
224.8813129833
  0
LINE
  8
Layer0$C$L0
 62
     3
 10
63.2520148691
 20
225.9070680932
 11
63.0655028676
 21
225.8646504287
  0
LINE
  8
Layer0$C$L0
 62
     3
 10
63.0735251284
 20
221.7064546842
 11
63.0810135103
 21
221.6085594667
  0
LINE
  8
Layer0$C$L0
 62
     3
 10
63.0665834037
 20
221.8045492000
 11
63.0735251284
 21
221.7064546842
  0
LINE
  8
Layer0$C$L0
 62
     3
 10
63.0601894059
 20
221.9028278997
 11
63.0665834037
 21
221.8045492000
  0
LINE
  8
Layer0$C$L0
 62
     3
 10
63.2522684085
 20
225.9071148520
 11
63.8106757008
 21
225.9396908564
  0
LINE
  8
Layer0$C$L0
 62
     3
 10
63.8022561713
 20
223.4999237061
 11
63.3984780951
 21
223.4999237061
  0
LINE
  8
Layer0$C$L0
 62
     3
 10
63.8022866888
 20
222.4999237061
 11
63.3984780951
 21
222.4999237061
  0
ARC
  8
Layer0$C$L0
 62
     3
 10
62.4117227240
 20
226.7999420166
 40
0.3000000119
 50
89.9999820139
 51
179.9999640278
  0
LINE
  8
Layer0$C$L0
 62
     3
 10
62.6273370366
 20
224.1825448501
 11
62.6220380904
 21
224.1007692335
  0
LINE
  8
Layer0$C$L0
 62
     3
 10
62.6330152337
 20
224.2641943272
 11
62.6273370366
 21
224.1825448501
  0
LINE
  8
Layer0$C$L0
 62
     3
 10
62.6390720761
 20
224.3457089562
 11
62.6330152337
 21
224.2641943272
  0
LINE
  8
Layer0$C$L0
 62
     3
 10
62.6455069177
 20
224.4270800426
 11
62.6390720761
 21
224.3457089562
  0
LINE
  8
Layer0$C$L0
 62
     3
 10
62.6523190722
 20
224.5082989073
 11
62.6455069177
 21
224.4270800426
  0
LINE
  8
Layer0$C$L0
 62
     3
 10
62.6595078130
 20
224.5893568875
 11
62.6523190722
 21
224.5082989073
  0
LINE
  8
Layer0$C$L0
 62
     3
 10
62.6670723734
 20
224.6702453374
 11
62.6595078130
 21
224.5893568875
  0
LINE
  8
Layer0$C$L0
 62
     3
 10
62.4707877565
 20
222.4886807610
 11
62.4340920498
 21
222.5002288818
  0
LINE
  8
Layer0$C$L0
 62
     3
 10
62.5060703331
 20
222.4544808522
 11
62.4707877565
 21
222.4886807610
  0
LINE
  8
Layer0$C$L0
 62
     3
 10
62.5385816310
 20
222.3989456284
 11
62.5060703331
 21
222.4544808522
  0
LINE
  8
Layer0$C$L0
 62
     3
 10
62.5670701775
 20
222.3242128330
 11
62.5385816310
 21
222.3989456284
  0
LINE
  8
Layer0$C$L0
 62
     3
 10
62.5904393497
 20
222.2331591904
 11
62.5670701775
 21
222.3242128330
  0
LINE
  8
Layer0$C$L0
 62
     3
 10
62.6077895872
 20
222.1292896710
 11
62.5904393497
 21
222.2331591904
  0
LINE
  8
Layer0$C$L0
 62
     3
 10
62.6184530191
 20
222.0166025726
 11
62.6077895872
 21
222.1292896710
  0
LINE
  8
Layer0$C$L0
 62
     3
 10
62.6220191731
 20
221.8994356125
 11
62.6184530191
 21
222.0166025726
  0
LINE
  8
Layer0$C$L0
 62
     3
 10
62.6187144993
 20
223.9882573671
 11
62.6220103823
 21
224.1061467722
  0
LINE
  8
Layer0$C$L0
 62
     3
 10
62.6082340883
 20
223.8747251791
 11
62.6187144993
 21
223.9882573671
  0
LINE
  8
Layer0$C$L0
 62
     3
 10
62.5909769580
 20
223.7699679160
 11
62.6082340883
 21
223.8747251791
  0
LINE
  8
Layer0$C$L0
 62
     3
 10
62.5676146090
 20
223.6780618401
 11
62.5909769580
 21
223.7699679160
  0
LINE
  8
Layer0$C$L0
 62
     3
 10
62.5390561054
 20
223.6025831547
 11
62.5676146090
 21
223.6780618401
  0
LINE
  8
Layer0$C$L0
 62
     3
 10
62.5064127016
 20
223.5464688486
 11
62.5390561054
 21
223.6025831547
  0
LINE
  8
Layer0$C$L0
 62
     3
 10
62.4709546012
 20
223.5119024137
 11
62.5064127016
 21
223.5464688486
  0
LINE
  8
Layer0$C$L0
 62
     3
 10
62.4340615322
 20
223.5002288818
 11
62.4709546012
 21
223.5119024137
  0
LINE
  8
Layer0$C$L0
 62
     3
 10
62.1823146083
 20
222.6232397978
 11
62.1951020201
 21
222.5002392410
  0
LINE
  8
Layer0$C$L0
 62
     3
 10
62.1731410189
 20
222.7479077931
 11
62.1823146083
 21
222.6232397978
  0
LINE
  8
Layer0$C$L0
 62
     3
 10
62.1676218602
 20
222.8736913684
 11
62.1731410189
 21
222.7479077931
  0
LINE
  8
Layer0$C$L0
 62
     3
 10
62.1657815633
 20
223.0000337269
 11
62.1676218602
 21
222.8736913684
  0
LINE
  8
Layer0$C$L0
 62
     3
 10
62.1676282745
 20
223.1263755985
 11
62.1657815633
 21
223.0000337269
  0
LINE
  8
Layer0$C$L0
 62
     3
 10
62.1731538192
 20
223.2521577149
 11
62.1676282745
 21
223.1263755985
  0
LINE
  8
Layer0$C$L0
 62
     3
 10
62.1823337378
 20
223.3768232858
 11
62.1731538192
 21
223.2521577149
  0
LINE
  8
Layer0$C$L0
 62
     3
 10
62.1951273942
 20
223.4998204636
 11
62.1823337378
 21
223.3768232858
  0
LINE
  8
Layer0$C$L0
 62
     3
 10
62.0953917356
 20
221.9535878786
 11
62.1755028801
 21
221.5670439599
  0
LINE
  8
Layer0$C$L0
 62
     3
 10
62.0409930881
 20
222.3627499169
 11
62.0953917356
 21
221.9535878786
  0
LINE
  8
Layer0$C$L0
 62
     3
 10
62.0134828460
 20
222.7856854233
 11
62.0409930881
 21
222.3627499169
  0
LINE
  8
Layer0$C$L0
 62
     3
 10
62.0134556845
 20
223.2132520119
 11
62.0134828460
 21
222.7856854233
  0
LINE
  8
Layer0$C$L0
 62
     3
 10
62.0409121908
 20
223.6362071888
 11
62.0134556845
 21
223.2132520119
  0
LINE
  8
Layer0$C$L0
 62
     3
 10
62.0952588512
 20
224.0454081430
 11
62.0409121908
 21
223.6362071888
  0
LINE
  8
Layer0$C$L0
 62
     3
 10
62.1753208811
 20
224.4320093815
 11
62.0952588512
 21
224.0454081430
  0
LINE
  8
Layer0$C$L0
 62
     3
 10
62.2793676194
 20
224.7876539382
 11
62.1753208811
 21
224.4320093815
  0
LINE
  8
Layer0$C$L0
 62
     3
 10
62.4051499399
 20
225.1046540221
 11
62.2793676194
 21
224.7876539382
  0
LINE
  8
Layer0$C$L0
 62
     3
 10
62.5499488687
 20
225.3761572005
 11
62.4051499399
 21
225.1046540221
  0
ARC
  8
Layer0$C$L0
 62
     3
 10
57.5117288275
 20
222.9999237061
 40
5.0000000000
 50
19.2051873799
 51
23.0739158089
  0
LINE
  8
Layer0$C$L0
 62
     3
 10
62.6390519965
 20
221.6544672513
 11
62.6454797190
 21
221.5731680581
  0
LINE
  8
Layer0$C$L0
 62
     3
 10
62.6330016015
 20
221.7359096961
 11
62.6390519965
 21
221.6544672513
  0
LINE
  8
Layer0$C$L0
 62
     3
 10
62.6273291784
 20
221.8174867215
 11
62.6330016015
 21
221.7359096961
  0
LINE
  8
Layer0$C$L0
 62
     3
 10
62.6220353309
 20
221.8991896417
 11
62.6273291784
 21
221.8174867215
  0
LINE
  8
Layer0$C$L0
 62
     3
 10
62.1117349310
 20
226.7999420166
 11
62.1117349310
 21
224.9595184326
  0
LINE
  8
Layer0$C$L0
 62
     3
 10
62.4343362494
 20
222.4999237061
 11
62.1951394720
 21
222.4999237061
  0
LINE
  8
Layer0$C$L0
 62
     3
 10
62.4340615912
 20
223.4999237061
 11
62.1951394720
 21
223.4999237061
  0
LINE
  8
Layer0$C$L0
 62
     3
 10
62.6750119465
 20
224.7509556294
 11
62.6670723734
 21
224.6702453374
  0
LINE
  8
Layer0$C$L0
 62
     3
 10
62.8163737895
 20
225.7625716360
 11
62.6555552609
 21
225.5288704268
  0
LINE
  8
Layer0$C$L0
 62
     3
 10
62.7106343596
 20
225.5962945245
 11
62.5499488687
 21
225.3761572005
  0
LINE
  8
Layer0$C$L0
 62
     3
 10
63.0117288275
 20
227.0999298096
 11
63.0117288275
 21
227.9999237061
  0
LINE
  8
Layer0$C$L0
 62
     3
 10
64.4779426351
 20
224.7072852383
 11
64.3632904963
 21
225.0651766297
  0
LINE
  8
Layer0$C$L0
 62
     3
 10
64.4466459759
 20
224.1973865252
 11
64.3623084248
 21
224.5544706433
  0
LINE
  8
Layer0$C$L0
 62
     3
 10
63.0117288275
 20
233.5999298096
 11
63.0117288275
 21
231.3999481201
  0
LINE
  8
Layer0$C$L0
 62
     3
 10
63.5117288275
 20
233.3590850830
 11
63.5117288275
 21
232.6958160400
  0
LINE
  8
Layer0$C$L0
 62
     3
 10
55.6788125677
 20
237.8999481201
 11
55.6788125677
 21
236.6999359131
  0
LINE
  8
Layer0$C$L0
 62
     3
 10
53.8721109076
 20
237.9999542236
 11
55.2925515814
 21
237.9999542236
  0
LINE
  8
Layer0$C$L0
 62
     3
 10
53.8721109076
 20
237.9999542236
 11
53.8721109076
 21
238.1999359131
  0
LINE
  8
Layer0$C$L0
 62
     3
 10
54.5734964056
 20
237.9999542236
 11
54.5734964056
 21
238.1999359131
  0
LINE
  8
Layer0$C$L0
 62
     3
 10
55.2925515814
 20
238.2999420166
 11
55.2925515814
 21
237.9999542236
  0
LINE
  8
Layer0$C$L0
 62
     3
 10
55.2925515814
 20
238.2999420166
 11
55.7045694037
 21
238.2999420166
  0
LINE
  8
Layer0$C$L0
 62
     3
 10
53.8721109076
 20
226.9999237061
 11
55.2925515814
 21
226.9999237061
  0
LINE
  8
Layer0$C$L0
 62
     3
 10
53.8721109076
 20
226.9999237061
 11
53.8721109076
 21
226.7999420166
  0
LINE
  8
Layer0$C$L0
 62
     3
 10
54.5734964056
 20
226.9999237061
 11
54.5734964056
 21
226.7999420166
  0
LINE
  8
Layer0$C$L0
 62
     3
 10
55.2925515814
 20
226.6999359131
 11
55.2925515814
 21
226.9999237061
  0
LINE
  8
Layer0$C$L0
 62
     3
 10
55.2925515814
 20
226.6999359131
 11
55.7045694037
 21
226.6999359131
  0
LINE
  8
Layer0$C$L0
 62
     3
 10
55.6788125677
 20
227.0999298096
 11
55.6788125677
 21
228.2999420166
  0
LINE
  8
Layer0$C$L0
 62
     3
 10
54.7117105170
 20
228.2999420166
 11
54.7117105170
 21
236.6999359131
  0
LINE
  8
Layer0$C$L0
 62
     3
 10
58.0117288275
 20
228.2999420166
 11
58.0117288275
 21
236.6999359131
  0
ARC
  8
Layer0$C$L0
 62
     3
 10
65.2954202338
 20
218.0999298096
 40
0.3000000119
 50
179.9999640278
 51
270.0000006832
  0
ARC
  8
Layer0$C$L0
 62
     3
 10
66.1855264349
 20
218.5999298096
 40
0.3000000119
 50
89.9999820139
 51
179.9999640278
  0
LINE
  8
Layer0$C$L0
 62
     3
 10
65.8855386420
 20
217.7999420166
 11
65.8855386420
 21
218.5999298096
  0
LINE
  8
Layer0$C$L0
 62
     3
 10
64.2662024132
 20
221.1435848478
 11
64.3698859648
 21
221.4731070818
  0
LINE
  8
Layer0$C$L0
 62
     3
 10
63.1067466415
 20
221.3162202740
 11
63.1164092748
 21
221.2192727452
  0
LINE
  8
Layer0$C$L0
 62
     3
 10
62.8968308828
 20
221.1141930839
 11
62.9542113881
 21
221.1026417789
  0
LINE
  8
Layer0$C$L0
 62
     3
 10
62.8161624534
 20
220.2375011328
 11
62.9893895946
 21
220.0623878280
  0
LINE
  8
Layer0$C$L0
 62
     3
 10
62.8840836838
 20
220.2392530342
 11
63.0658668454
 21
220.1350401027
  0
LINE
  8
Layer0$C$L0
 62
     3
 10
62.8399376013
 20
221.1347637326
 11
62.8968308828
 21
221.1141930839
  0
LINE
  8
Layer0$C$L0
 62
     3
 10
62.7838036610
 20
221.1642553368
 11
62.8399376013
 21
221.1347637326
  0
LINE
  8
Layer0$C$L0
 62
     3
 10
62.7286975474
 20
221.2025268398
 11
62.7838036610
 21
221.1642553368
  0
LINE
  8
Layer0$C$L0
 62
     3
 10
62.6748828299
 20
221.2493951911
 11
62.7286975474
 21
221.2025268398
  0
LINE
  8
Layer0$C$L0
 62
     3
 10
62.7109642586
 20
220.4031420068
 11
62.8840836838
 21
220.2392530342
  0
LINE
  8
Layer0$C$L0
 62
     3
 10
63.0693352618
 20
221.1067747936
 11
63.1265279991
 21
221.1224393455
  0
LINE
  8
Layer0$C$L0
 62
     3
 10
63.0118046696
 20
221.1001650668
 11
63.0693352618
 21
221.1067747936
  0
LINE
  8
Layer0$C$L0
 62
     3
 10
62.9542113881
 20
221.1026417789
 11
63.0118046696
 21
221.1001650668
  0
LINE
  8
Layer0$C$L0
 62
     3
 10
64.2280352752
 20
220.6203090488
 11
64.3631324887
 21
220.9343004065
  0
LINE
  8
Layer0$C$L0
 62
     3
 10
64.0753886543
 20
220.3568400127
 11
64.2280352752
 21
220.6203090488
  0
LINE
  8
Layer0$C$L0
 62
     3
 10
63.9084335126
 20
220.1494870892
 11
64.0753886543
 21
220.3568400127
  0
LINE
  8
Layer0$C$L0
 62
     3
 10
63.7307145256
 20
220.0026526513
 11
63.9084335126
 21
220.1494870892
  0
LINE
  8
Layer0$C$L0
 62
     3
 10
63.5460048990
 20
219.9194541854
 11
63.7307145256
 21
220.0026526513
  0
LINE
  8
Layer0$C$L0
 62
     3
 10
63.3582262590
 20
219.9016581035
 11
63.5460048990
 21
219.9194541854
  0
LINE
  8
Layer0$C$L0
 62
     3
 10
63.1713653909
 20
219.9496422397
 11
63.3582262590
 21
219.9016581035
  0
LINE
  8
Layer0$C$L0
 62
     3
 10
62.9893895946
 20
220.0623878280
 11
63.1713653909
 21
219.9496422397
  0
LINE
  8
Layer0$C$L0
 62
     3
 10
64.1434283843
 20
220.8501753785
 11
64.2662024132
 21
221.1435848478
  0
LINE
  8
Layer0$C$L0
 62
     3
 10
64.0039522940
 20
220.5985865903
 11
64.1434283843
 21
220.8501753785
  0
LINE
  8
Layer0$C$L0
 62
     3
 10
63.0658668454
 20
220.1350401027
 11
63.2523842276
 21
220.0927559313
  0
LINE
  8
Layer0$C$L0
 62
     3
 10
63.1164092748
 20
221.2192727452
 11
63.1266119577
 21
221.1225995800
  0
LINE
  8
Layer0$C$L0
 62
     3
 10
63.8107422438
 20
220.0601697480
 11
63.2522740199
 21
220.0927493070
  0
LINE
  8
Layer0$C$L0
 62
     3
 10
63.0976255467
 20
221.4134272285
 11
63.1067466415
 21
221.3162202740
  0
LINE
  8
Layer0$C$L0
 62
     3
 10
63.0890473957
 20
221.5108786312
 11
63.0976255467
 21
221.4134272285
  0
ARC
  8
Layer0$C$L0
 62
     3
 10
57.5117288275
 20
222.9999237061
 40
5.0000000000
 50
336.9260807760
 51
340.7952668276
  0
LINE
  8
Layer0$C$L0
 62
     3
 10
62.4054173890
 20
220.8945638441
 11
62.5502508061
 21
220.6231643142
  0
LINE
  8
Layer0$C$L0
 62
     3
 10
62.2795947990
 20
221.2114738881
 11
62.4054173890
 21
220.8945638441
  0
ARC
  8
Layer0$C$L0
 62
     3
 10
62.4117227240
 20
218.0999298096
 40
0.3000000119
 50
179.9999640278
 51
270.0000006832
  0
LINE
  8
Layer0$C$L0
 62
     3
 10
62.1117349310
 20
221.0403289795
 11
62.1117349310
 21
218.0999298096
  0
LINE
  8
Layer0$C$L0
 62
     3
 10
62.6594643693
 20
221.4110340346
 11
62.6670198080
 21
221.3302164668
  0
LINE
  8
Layer0$C$L0
 62
     3
 10
62.6522840847
 20
221.4920207726
 11
62.6594643693
 21
221.4110340346
  0
LINE
  8
Layer0$C$L0
 62
     3
 10
62.6670198080
 20
221.3302164668
 11
62.6749495966
 21
221.2495766740
  0
LINE
  8
Layer0$C$L0
 62
     3
 10
62.6553618055
 20
220.4712642702
 11
62.8161624534
 21
220.2375011328
  0
LINE
  8
Layer0$C$L0
 62
     3
 10
62.5502508061
 20
220.6231643142
 11
62.7109642586
 21
220.4031420068
  0
LINE
  8
Layer0$C$L0
 62
     3
 10
65.5817056342
 20
218.0999298096
 11
62.4344278021
 21
218.0999298096
  0
LINE
  8
Layer0$C$L0
 62
     3
 10
64.3631324887
 20
220.9343004065
 11
64.4778120048
 21
221.2921476398
  0
ARC
  8
Layer0$C$L0
 62
     3
 10
60.5309243842
 20
218.0999298096
 40
0.3000000119
 50
304.2394625972
 51
348.7908570248
  0
LINE
  8
Layer0$C$L0
 62
     3
 10
60.8309121771
 20
218.2113494873
 11
60.8309121771
 21
218.7951507568
  0
LINE
  8
Layer0$C$L0
 62
     3
 10
53.8721109076
 20
218.9999237061
 11
53.8721109076
 21
219.1999359131
  0
LINE
  8
Layer0$C$L0
 62
     3
 10
54.5734964056
 20
218.9999237061
 11
54.5734964056
 21
219.1999359131
  0
LINE
  8
Layer0$C$L0
 62
     3
 10
55.2925515814
 20
219.2999420166
 11
55.2925515814
 21
218.9999237061
  0
LINE
  8
Layer0$C$L0
 62
     3
 10
55.2925515814
 20
219.2999420166
 11
55.7045694037
 21
219.2999420166
  0
LINE
  8
Layer0$C$L0
 62
     3
 10
55.7045694037
 20
218.8999481201
 11
55.7045694037
 21
227.0999298096
  0
LINE
  8
Layer0$C$L0
 62
     3
 10
55.8257241888
 20
218.8999481201
 11
55.8257241888
 21
227.0999298096
  0
LINE
  8
Layer0$C$L0
 62
     3
 10
57.0203347845
 20
218.8999481201
 11
57.0203347845
 21
227.0999298096
  0
LINE
  8
Layer0$C$L0
 62
     3
 10
61.1117349310
 20
217.7999420166
 11
61.1117349310
 21
227.0999298096
  0
LINE
  8
Layer0$C$L0
 62
     3
 10
55.1433816595
 20
219.4735870361
 11
55.1433816595
 21
226.4568328857
  0
LINE
  8
Layer0$C$L0
 62
     3
 10
60.6117349310
 20
219.2806549072
 11
60.6117349310
 21
226.6989593506
  0
LINE
  8
Layer0$C$L0
 62
     3
 10
64.9954324408
 20
227.9999237061
 11
64.9954324408
 21
218.0999298096
  0
LINE
  8
Layer0$C$L0
 62
     3
 10
62.1755028801
 20
221.5670439599
 11
62.2795947990
 21
221.2114738881
  0
LINE
  8
Layer0$C$L0
 62
     3
 10
62.6454797190
 20
221.5731680581
 11
62.6522840847
 21
221.4920207726
  0
LINE
  8
Layer0$C$L0
 62
     3
 10
64.4778120048
 20
221.2921476398
 11
64.5696390278
 21
221.6862531854
  0
LINE
  8
Layer0$C$L0
 62
     3
 10
64.3698859648
 20
221.4731070818
 11
64.4524620043
 21
221.8323316350
  0
LINE
  8
Layer0$C$L0
 62
     3
 10
63.0810135103
 20
221.6085594667
 11
63.0890473957
 21
221.5108786312
  0
LINE
  8
Layer0$C$L0
 62
     3
 10
68.3485513373
 20
227.9999237061
 11
63.2644754095
 21
227.9999237061
  0
LINE
  8
Layer0$C$L0
 62
     3
 10
68.7117105170
 20
218.8999481201
 11
66.1855264349
 21
218.8999481201
  0
LINE
  8
Layer0$C$L0
 62
     3
 10
70.0117288275
 20
231.3999481201
 11
63.0117288275
 21
231.3999481201
  0
LINE
  8
Layer0$C$L0
 62
     3
 10
68.3485513373
 20
236.9999542236
 11
63.2644754095
 21
236.9999542236
  0
LINE
  8
Layer0$C$L0
 62
     3
 10
70.0117288275
 20
233.5999298096
 11
63.0117288275
 21
233.5999298096
  0
LINE
  8
Layer0$C$L0
 62
     3
 10
78.0117288275
 20
236.6999359131
 11
63.0117288275
 21
236.6999359131
  0
LINE
  8
Layer0$C$L0
 62
     3
 10
78.0117288275
 20
228.2999420166
 11
63.0117288275
 21
228.2999420166
  0
LINE
  8
Layer0$C$L0
 62
     3
 10
68.6117501898
 20
162.5000000000
 11
68.6117501898
 21
174.4999694824
  0
ARC
  8
Layer0$C$L0
 62
     3
 10
65.3078866644
 20
188.6999816895
 40
0.5000000000
 50
89.9999820139
 51
154.0000020087
  0
ARC
  8
Layer0$C$L0
 62
     3
 10
64.8746591254
 20
186.8808898926
 40
1.2999992371
 50
108.3069653671
 51
139.6839255084
  0
ARC
  8
Layer0$C$L0
 62
     3
 10
63.5117440863
 20
186.4999694824
 40
0.5000000000
 50
113.8655372381
 51
179.9999640278
  0
LINE
  8
Layer0$C$L0
 62
     3
 10
63.0117135687
 20
185.3899380656
 11
63.0117135687
 21
186.9999694824
  0
LINE
  8
Layer0$C$L0
 62
     3
 10
63.0117440863
 20
185.3899230957
 11
63.0117440863
 21
186.4999694824
  0
LINE
  8
Layer0$C$L0
 62
     3
 10
63.0261976510
 20
186.4954756300
 11
63.5514359127
 21
186.2392998300
  0
LINE
  8
Layer0$C$L0
 62
     3
 10
62.5119900889
 20
181.4099192044
 11
60.9299117717
 21
182.1815503061
  0
LINE
  8
Layer0$C$L0
 62
     3
 10
61.1117196722
 20
184.0377502441
 11
61.1117196722
 21
182.4266662598
  0
LINE
  8
Layer0$C$L0
 62
     3
 10
62.6117501898
 20
182.4877014160
 11
62.6117501898
 21
181.9950866699
  0
LINE
  8
Layer0$C$L0
 62
     3
 10
62.1117501898
 20
183.2875061035
 11
62.1117501898
 21
182.5513610840
  0
ARC
  8
Layer0$C$L0
 62
     3
 10
62.6117501898
 20
182.5513610840
 40
0.5000000000
 50
179.9999640278
 51
243.9999840226
  0
ARC
  8
Layer0$C$L0
 62
     3
 10
63.4221749945
 20
183.9028015137
 40
1.2999992371
 50
168.3160238675
 51
199.6926561598
  0
ARC
  8
Layer0$C$L0
 62
     3
 10
69.9833322211
 20
182.5459289551
 40
8.0000000000
 50
157.5832831718
 51
168.3160238675
  0
LINE
  8
Layer0$C$L0
 62
     3
 10
62.7308916139
 20
181.6369377763
 11
61.1117018357
 21
182.4266693457
  0
LINE
  8
Layer0$C$L0
 62
     3
 10
62.5878265291
 20
185.5966815750
 11
63.1130647908
 21
185.3405057750
  0
LINE
  8
Layer0$C$L0
 62
     3
 10
62.3925607800
 20
182.1019725496
 11
63.0117159986
 21
181.7999903922
  0
ARC
  8
Layer0$C$L0
 62
     3
 10
62.5117135687
 20
181.1875305176
 40
0.5000000000
 50
0.0000000000
 51
63.9999653533
  0
LINE
  8
Layer0$C$L0
 62
     3
 10
65.8855260109
 20
189.1999841710
 11
62.6117326664
 21
182.4877126539
  0
LINE
  8
Layer0$C$L0
 62
     3
 10
64.8584927809
 20
188.9191637261
 11
62.1117534857
 21
183.2875132230
  0
ARC
  8
Layer0$C$L0
 62
     3
 10
69.9833322211
 20
182.5459594727
 40
8.0000000000
 50
139.6839255084
 51
150.4167208456
  0
LINE
  8
Layer0$C$L0
 62
     3
 10
60.8117318793
 20
183.7772521973
 11
60.8117318793
 21
182.4266662598
  0
ARC
  8
Layer0$C$L0
 62
     3
 10
53.6352792425
 20
184.1025695801
 40
1.0000000000
 50
334.0000004148
 51
423.9999653533
  0
ARC
  8
Layer0$C$L0
 62
     3
 10
53.6352792425
 20
184.1025695801
 40
1.2999992371
 50
336.1237657750
 51
423.9999653533
  0
LINE
  8
Layer0$C$L0
 62
     3
 10
55.6126012868
 20
183.1381593072
 11
54.5340374492
 21
183.6642100047
  0
LINE
  8
Layer0$C$L0
 62
     3
 10
55.6788278265
 20
186.9999694824
 11
63.0117135687
 21
186.9999694824
  0
ARC
  8
Layer0$C$L0
 62
     3
 10
60.6117196722
 20
184.0377502441
 40
0.5000000000
 50
0.0000000000
 51
63.9999653533
  0
LINE
  8
Layer0$C$L0
 62
     3
 10
66.1117501898
 20
165.5000000000
 11
66.1117501898
 21
171.4999694824
  0
LINE
  8
Layer0$C$L0
 62
     3
 10
63.0117440863
 20
171.8999938965
 11
63.8117623968
 21
171.8999938965
  0
LINE
  8
Layer0$C$L0
 62
     3
 10
63.8117623968
 20
174.5999755859
 11
63.8117623968
 21
171.8999938965
  0
LINE
  8
Layer0$C$L0
 62
     3
 10
63.0117440863
 20
174.5999755859
 11
63.8117623968
 21
174.5999755859
  0
LINE
  8
Layer0$C$L0
 62
     3
 10
63.0117440863
 20
165.0999755859
 11
63.8117623968
 21
165.0999755859
  0
LINE
  8
Layer0$C$L0
 62
     3
 10
63.6117501898
 20
165.5000000000
 11
63.6117501898
 21
171.4999694824
  0
LINE
  8
Layer0$C$L0
 62
     3
 10
63.6117501898
 20
165.5000000000
 11
66.1117501898
 21
165.5000000000
  0
LINE
  8
Layer0$C$L0
 62
     3
 10
63.6117501898
 20
171.4999694824
 11
66.1117501898
 21
171.4999694824
  0
LINE
  8
Layer0$C$L0
 62
     3
 10
63.0117440863
 20
162.3999938965
 11
63.8117623968
 21
162.3999938965
  0
ARC
  8
Layer0$C$L0
 62
     3
 10
62.5117135687
 20
155.8124389648
 40
0.5000000000
 50
296.0000346467
 51
360.0000000000
  0
LINE
  8
Layer0$C$L0
 62
     3
 10
62.5119967989
 20
155.5900377999
 11
60.9299184818
 21
154.8184066982
  0
LINE
  8
Layer0$C$L0
 62
     3
 10
61.1117196722
 20
152.9622192383
 11
61.1117196722
 21
154.5733032227
  0
ARC
  8
Layer0$C$L0
 62
     3
 10
62.6117501898
 20
154.4486083984
 40
0.5000000000
 50
115.9999986745
 51
179.9999640278
  0
LINE
  8
Layer0$C$L0
 62
     3
 10
62.6117501898
 20
154.5122680664
 11
62.6117501898
 21
155.0049133301
  0
LINE
  8
Layer0$C$L0
 62
     3
 10
62.1117501898
 20
153.7124633789
 11
62.1117501898
 21
154.4486083984
  0
ARC
  8
Layer0$C$L0
 62
     3
 10
63.4221749945
 20
153.0971984863
 40
1.2999992371
 50
160.3072718959
 51
191.6839041881
  0
LINE
  8
Layer0$C$L0
 62
     3
 10
62.7308916350
 20
155.3630329425
 11
61.1117018567
 21
154.5733013731
  0
LINE
  8
Layer0$C$L0
 62
     3
 10
62.3925778601
 20
154.8979980009
 11
63.0117467932
 21
155.1999868474
  0
LINE
  8
Layer0$C$L0
 62
     3
 10
66.6117501898
 20
162.5000000000
 11
66.6117501898
 21
174.4999694824
  0
LINE
  8
Layer0$C$L0
 62
     3
 10
63.8117623968
 20
162.3999938965
 11
63.8117623968
 21
165.0999755859
  0
LINE
  8
Layer0$C$L0
 62
     3
 10
60.5117135687
 20
175.4999694824
 11
60.5117135687
 21
172.4999694824
  0
LINE
  8
Layer0$C$L0
 62
     3
 10
60.7117377585
 20
172.2999724192
 11
60.5117418620
 21
172.4999683157
  0
LINE
  8
Layer0$C$L0
 62
     3
 10
60.7117269689
 20
164.6999880882
 11
60.5117310724
 21
164.4999921917
  0
LINE
  8
Layer0$C$L0
 62
     3
 10
60.5117418620
 20
161.4999782174
 11
60.7117377585
 21
161.2999823209
  0
LINE
  8
Layer0$C$L0
 62
     3
 10
60.8117318793
 20
153.2226867676
 11
60.8117318793
 21
154.5733032227
  0
LINE
  8
Layer0$C$L0
 62
     3
 10
55.6126079969
 20
153.8617976971
 11
54.5340578738
 21
153.3357536886
  0
LINE
  8
Layer0$C$L0
 62
     3
 10
60.7117257758
 20
161.2999877930
 11
60.7117257758
 21
164.6999816895
  0
LINE
  8
Layer0$C$L0
 62
     3
 10
60.5117135687
 20
161.5000000000
 11
60.5117135687
 21
164.5000000000
  0
LINE
  8
Layer0$C$L0
 62
     3
 10
63.0117440863
 20
155.1999816895
 11
63.0117440863
 21
181.7999877930
  0
LINE
  8
Layer0$C$L0
 62
     3
 10
62.7117257758
 20
156.1184997559
 11
62.7117257758
 21
180.9360046387
  0
LINE
  8
Layer0$C$L0
 62
     3
 10
60.7117257758
 20
175.6999816895
 11
60.7117257758
 21
172.2999877930
  0
LINE
  8
Layer0$C$L0
 62
     3
 10
60.5117310724
 20
175.4999822900
 11
60.7117269689
 21
175.6999781865
  0
LINE
  8
Layer0$C$L0
 62
     3
 10
66.6117501898
 20
174.4999694824
 11
68.6117501898
 21
174.4999694824
  0
LINE
  8
Layer0$C$L0
 62
     3
 10
66.6117501898
 20
162.5000000000
 11
68.6117501898
 21
162.5000000000
  0
LINE
  8
Layer0$C$L0
 62
     3
 10
65.8855539008
 20
188.8999938965
 11
70.8779550238
 21
188.8999938965
  0
LINE
  8
Layer0$C$L0
 62
     3
 10
65.3078866644
 20
189.1999816895
 11
71.1681771918
 21
189.1999816895
  0
LINE
  8
Layer0$C$L0
 62
     3
 10
52.3748415273
 20
241.1249613943
 11
52.4691044013
 21
240.8289818158
  0
LINE
  8
Layer0$C$L0
 62
     3
 10
52.4691296790
 20
243.1709389380
 11
52.3748604157
 21
242.8749613943
  0
LINE
  8
Layer0$C$L0
 62
     3
 10
52.3096147394
 20
241.4591823582
 11
52.3748415273
 21
241.1249613943
  0
LINE
  8
Layer0$C$L0
 62
     3
 10
52.2762747614
 20
241.8170376476
 11
52.3096147394
 21
241.4591823582
  0
LINE
  8
Layer0$C$L0
 62
     3
 10
52.2762787101
 20
242.1828872690
 11
52.2762747614
 21
241.8170376476
  0
LINE
  8
Layer0$C$L0
 62
     3
 10
52.3096264131
 20
242.5407418385
 11
52.2762787101
 21
242.1828872690
  0
LINE
  8
Layer0$C$L0
 62
     3
 10
52.3748604157
 20
242.8749613943
 11
52.3096264131
 21
242.5407418385
  0
LINE
  8
Layer0$C$L0
 62
     3
 10
52.8926035232
 20
240.5890272833
 11
53.0391946478
 21
240.5499420166
  0
LINE
  8
Layer0$C$L0
 62
     3
 10
52.7539151640
 20
240.7041759866
 11
52.8926035232
 21
240.5890272833
  0
LINE
  8
Layer0$C$L0
 62
     3
 10
52.6306062957
 20
240.8891804300
 11
52.7539151640
 21
240.7041759866
  0
LINE
  8
Layer0$C$L0
 62
     3
 10
52.5293245312
 20
241.1340669761
 11
52.6306062957
 21
240.8891804300
  0
LINE
  8
Layer0$C$L0
 62
     3
 10
52.4555299966
 20
241.4256337279
 11
52.5293245312
 21
241.1340669761
  0
LINE
  8
Layer0$C$L0
 62
     3
 10
52.4132009745
 20
241.7481622463
 11
52.4555299966
 21
241.4256337279
  0
LINE
  8
Layer0$C$L0
 62
     3
 10
52.4046194333
 20
242.0842649353
 11
52.4132009745
 21
241.7481622463
  0
LINE
  8
Layer0$C$L0
 62
     3
 10
52.4302480062
 20
242.4158224121
 11
52.4046194333
 21
242.0842649353
  0
LINE
  8
Layer0$C$L0
 62
     3
 10
52.4887050502
 20
242.7249603271
 11
52.4302480062
 21
242.4158224121
  0
LINE
  8
Layer0$C$L0
 62
     3
 10
52.5768391308
 20
242.9950129755
 11
52.4887050502
 21
242.7249603271
  0
LINE
  8
Layer0$C$L0
 62
     3
 10
52.6898989171
 20
243.2114217490
 11
52.5768391308
 21
242.9950129755
  0
LINE
  8
Layer0$C$L0
 62
     3
 10
52.8217893266
 20
243.3625199946
 11
52.6898989171
 21
243.2114217490
  0
LINE
  8
Layer0$C$L0
 62
     3
 10
52.9654001133
 20
243.4401619669
 11
52.8217893266
 21
243.3625199946
  0
LINE
  8
Layer0$C$L0
 62
     3
 10
53.1129891824
 20
243.4401619669
 11
52.9654001133
 21
243.4401619669
  0
LINE
  8
Layer0$C$L0
 62
     3
 10
53.2565999690
 20
243.3625199946
 11
53.1129891824
 21
243.4401619669
  0
LINE
  8
Layer0$C$L0
 62
     3
 10
53.3884903785
 20
243.2114217490
 11
53.2565999690
 21
243.3625199946
  0
LINE
  8
Layer0$C$L0
 62
     3
 10
53.5015501648
 20
242.9950129755
 11
53.3884903785
 21
243.2114217490
  0
LINE
  8
Layer0$C$L0
 62
     3
 10
53.5896842455
 20
242.7249603271
 11
53.5015501648
 21
242.9950129755
  0
LINE
  8
Layer0$C$L0
 62
     3
 10
53.6481412894
 20
242.4158224121
 11
53.5896842455
 21
242.7249603271
  0
LINE
  8
Layer0$C$L0
 62
     3
 10
53.6737698623
 20
242.0842649353
 11
53.6481412894
 21
242.4158224121
  0
LINE
  8
Layer0$C$L0
 62
     3
 10
53.6651883211
 20
241.7481622463
 11
53.6737698623
 21
242.0842649353
  0
LINE
  8
Layer0$C$L0
 62
     3
 10
53.6228592990
 20
241.4256337279
 11
53.6651883211
 21
241.7481622463
  0
LINE
  8
Layer0$C$L0
 62
     3
 10
53.5490647645
 20
241.1340669761
 11
53.6228592990
 21
241.4256337279
  0
LINE
  8
Layer0$C$L0
 62
     3
 10
53.4477829999
 20
240.8891804300
 11
53.5490647645
 21
241.1340669761
  0
LINE
  8
Layer0$C$L0
 62
     3
 10
53.3244741316
 20
240.7041759866
 11
53.4477829999
 21
240.8891804300
  0
LINE
  8
Layer0$C$L0
 62
     3
 10
53.1857857724
 20
240.5890272833
 11
53.3244741316
 21
240.7041759866
  0
LINE
  8
Layer0$C$L0
 62
     3
 10
53.0391946478
 20
240.5499420166
 11
53.1857857724
 21
240.5890272833
  0
LINE
  8
Layer0$C$L0
 62
     3
 10
53.1987248461
 20
243.7117108034
 11
53.0392287950
 21
243.7499542236
  0
LINE
  8
Layer0$C$L0
 62
     3
 10
53.3512493289
 20
243.5986554067
 11
53.1987248461
 21
243.7117108034
  0
LINE
  8
Layer0$C$L0
 62
     3
 10
53.4901361916
 20
243.4157290969
 11
53.3512493289
 21
243.5986554067
  0
LINE
  8
Layer0$C$L0
 62
     3
 10
53.6093154119
 20
243.1709266315
 11
53.4901361916
 21
243.4157290969
  0
LINE
  8
Layer0$C$L0
 62
     3
 10
53.7035782859
 20
242.8749470529
 11
53.6093154119
 21
243.1709266315
  0
LINE
  8
Layer0$C$L0
 62
     3
 10
53.7688050738
 20
242.5407260890
 11
53.7035782859
 21
242.8749470529
  0
LINE
  8
Layer0$C$L0
 62
     3
 10
53.8021450518
 20
242.1828707997
 11
53.7688050738
 21
242.5407260890
  0
LINE
  8
Layer0$C$L0
 62
     3
 10
53.8021411031
 20
241.8170211783
 11
53.8021450518
 21
242.1828707997
  0
LINE
  8
Layer0$C$L0
 62
     3
 10
53.7687934001
 20
241.4591666087
 11
53.8021411031
 21
241.8170211783
  0
LINE
  8
Layer0$C$L0
 62
     3
 10
53.7035593975
 20
241.1249470530
 11
53.7687934001
 21
241.4591666087
  0
LINE
  8
Layer0$C$L0
 62
     3
 10
53.6092901343
 20
240.8289695093
 11
53.7035593975
 21
241.1249470530
  0
LINE
  8
Layer0$C$L0
 62
     3
 10
53.4901056295
 20
240.5841696166
 11
53.6092901343
 21
240.8289695093
  0
LINE
  8
Layer0$C$L0
 62
     3
 10
53.3512148180
 20
240.4012463050
 11
53.4901056295
 21
240.5841696166
  0
LINE
  8
Layer0$C$L0
 62
     3
 10
53.1986878948
 20
240.2881942009
 11
53.3512148180
 21
240.4012463050
  0
LINE
  8
Layer0$C$L0
 62
     3
 10
53.0391910182
 20
240.2499542237
 11
53.1986878948
 21
240.2881942009
  0
LINE
  8
Layer0$C$L0
 62
     3
 10
52.8796949671
 20
240.2881976439
 11
53.0391910182
 21
240.2499542237
  0
LINE
  8
Layer0$C$L0
 62
     3
 10
52.7271704843
 20
240.4012530406
 11
52.8796949671
 21
240.2881976439
  0
LINE
  8
Layer0$C$L0
 62
     3
 10
52.5882836216
 20
240.5841793504
 11
52.7271704843
 21
240.4012530406
  0
LINE
  8
Layer0$C$L0
 62
     3
 10
52.4691044013
 20
240.8289818158
 11
52.5882836216
 21
240.5841793504
  0
LINE
  8
Layer0$C$L0
 62
     3
 10
52.5883141837
 20
243.4157388306
 11
52.4691296790
 21
243.1709389380
  0
LINE
  8
Layer0$C$L0
 62
     3
 10
52.7272049952
 20
243.5986621423
 11
52.5883141837
 21
243.4157388306
  0
LINE
  8
Layer0$C$L0
 62
     3
 10
52.8797319184
 20
243.7117142464
 11
52.7272049952
 21
243.5986621423
  0
LINE
  8
Layer0$C$L0
 62
     3
 10
53.0392287950
 20
243.7499542236
 11
52.8797319184
 21
243.7117142464
  0
LINE
  8
Layer0$C$L0
 62
     3
 10
51.6272055971
 20
243.3733163091
 11
51.5113780860
 21
243.5457437490
  0
LINE
  8
Layer0$C$L0
 62
     3
 10
51.7275785336
 20
243.1562486637
 11
51.6272055971
 21
243.3733163091
  0
LINE
  8
Layer0$C$L0
 62
     3
 10
51.8092343411
 20
242.9015964498
 11
51.7275785336
 21
243.1562486637
  0
LINE
  8
Layer0$C$L0
 62
     3
 10
51.8695188528
 20
242.6176369652
 11
51.8092343411
 21
242.9015964498
  0
LINE
  8
Layer0$C$L0
 62
     3
 10
51.9064725615
 20
242.3136001211
 11
51.8695188528
 21
242.6176369652
  0
LINE
  8
Layer0$C$L0
 62
     3
 10
51.9188943119
 20
241.9993684292
 11
51.9064725615
 21
242.3136001211
  0
LINE
  8
Layer0$C$L0
 62
     3
 10
51.9063803433
 20
241.6851557782
 11
51.9188943119
 21
241.9993684292
  0
LINE
  8
Layer0$C$L0
 62
     3
 10
51.8693374139
 20
241.3811754376
 11
51.9063803433
 21
241.6851557782
  0
LINE
  8
Layer0$C$L0
 62
     3
 10
51.8089695789
 20
241.0973080829
 11
51.8693374139
 21
241.3811754376
  0
LINE
  8
Layer0$C$L0
 62
     3
 10
51.7272390542
 20
240.8427806304
 11
51.8089695789
 21
241.0973080829
  0
LINE
  8
Layer0$C$L0
 62
     3
 10
51.6268024349
 20
240.6258663227
 11
51.7272390542
 21
240.8427806304
  0
LINE
  8
Layer0$C$L0
 62
     3
 10
51.5109243456
 20
240.4536158126
 11
51.6268024349
 21
240.6258663227
  0
LINE
  8
Layer0$C$L0
 62
     3
 10
51.5577722251
 20
242.6844116803
 11
51.5112924084
 21
242.8937082174
  0
LINE
  8
Layer0$C$L0
 62
     3
 10
51.5915611370
 20
242.4628120367
 11
51.5577722251
 21
242.6844116803
  0
LINE
  8
Layer0$C$L0
 62
     3
 10
51.6120517894
 20
242.2328925350
 11
51.5915611370
 21
242.4628120367
  0
LINE
  8
Layer0$C$L0
 62
     3
 10
51.6188758632
 20
241.9987859727
 11
51.6120517894
 21
242.2328925350
  0
LINE
  8
Layer0$C$L0
 62
     3
 10
51.6119106958
 20
241.7647004097
 11
51.6188758632
 21
241.9987859727
  0
LINE
  8
Layer0$C$L0
 62
     3
 10
51.5912814860
 20
241.5348435284
 11
51.6119106958
 21
241.7647004097
  0
LINE
  8
Layer0$C$L0
 62
     3
 10
51.5573590432
 20
241.3133470007
 11
51.5912814860
 21
241.5348435284
  0
LINE
  8
Layer0$C$L0
 62
     3
 10
51.5107531227
 20
241.1041922214
 11
51.5573590432
 21
241.3133470007
  0
LINE
  8
Layer0$C$L0
 62
     3
 10
52.2062783881
 20
237.9999542236
 11
52.2062783881
 21
238.1999359131
  0
LINE
  8
Layer0$C$L0
 62
     3
 10
52.9253335638
 20
238.1999359131
 11
52.9253335638
 21
237.9999542236
  0
LINE
  8
Layer0$C$L0
 62
     3
 10
51.1681619330
 20
237.8999481201
 11
51.1681619330
 21
236.6999359131
  0
LINE
  8
Layer0$C$L0
 62
     3
 10
51.5111489935
 20
237.9999542236
 11
52.9253335638
 21
237.9999542236
  0
LINE
  8
Layer0$C$L0
 62
     3
 10
47.9217324896
 20
236.6999359131
 11
47.9217324896
 21
233.5999298096
  0
LINE
  8
Layer0$C$L0
 62
     3
 10
52.3748224982
 20
222.1249237061
 11
52.4690904418
 21
221.8289451449
  0
LINE
  8
Layer0$C$L0
 62
     3
 10
52.4690904418
 20
224.1709022672
 11
52.3748224982
 21
223.8749237061
  0
LINE
  8
Layer0$C$L0
 62
     3
 10
52.3095908055
 20
222.4591439659
 11
52.3748224982
 21
222.1249237061
  0
LINE
  8
Layer0$C$L0
 62
     3
 10
52.2762463017
 20
222.8169988953
 11
52.3095908055
 21
222.4591439659
  0
LINE
  8
Layer0$C$L0
 62
     3
 10
52.2762463017
 20
223.1828485168
 11
52.2762463017
 21
222.8169988953
  0
LINE
  8
Layer0$C$L0
 62
     3
 10
52.3095908055
 20
223.5407034462
 11
52.2762463017
 21
223.1828485168
  0
LINE
  8
Layer0$C$L0
 62
     3
 10
52.3748224982
 20
223.8749237061
 11
52.3095908055
 21
223.5407034462
  0
LINE
  8
Layer0$C$L0
 62
     3
 10
52.2062783881
 20
226.9999237061
 11
52.2062783881
 21
226.7999420166
  0
LINE
  8
Layer0$C$L0
 62
     3
 10
53.1857857724
 20
224.4108506464
 11
53.0391946478
 21
224.4499359131
  0
LINE
  8
Layer0$C$L0
 62
     3
 10
53.3244741316
 20
224.2957019431
 11
53.1857857724
 21
224.4108506464
  0
LINE
  8
Layer0$C$L0
 62
     3
 10
53.4477829999
 20
224.1106974997
 11
53.3244741316
 21
224.2957019431
  0
LINE
  8
Layer0$C$L0
 62
     3
 10
53.5490647645
 20
223.8658109536
 11
53.4477829999
 21
224.1106974997
  0
LINE
  8
Layer0$C$L0
 62
     3
 10
53.6228592990
 20
223.5742442018
 11
53.5490647645
 21
223.8658109536
  0
LINE
  8
Layer0$C$L0
 62
     3
 10
53.6651883211
 20
223.2517156834
 11
53.6228592990
 21
223.5742442018
  0
LINE
  8
Layer0$C$L0
 62
     3
 10
53.6737698623
 20
222.9156129944
 11
53.6651883211
 21
223.2517156834
  0
LINE
  8
Layer0$C$L0
 62
     3
 10
53.6481412894
 20
222.5840555176
 11
53.6737698623
 21
222.9156129944
  0
LINE
  8
Layer0$C$L0
 62
     3
 10
53.5896842455
 20
222.2749176025
 11
53.6481412894
 21
222.5840555176
  0
LINE
  8
Layer0$C$L0
 62
     3
 10
53.5015501648
 20
222.0048649542
 11
53.5896842455
 21
222.2749176025
  0
LINE
  8
Layer0$C$L0
 62
     3
 10
53.3884903785
 20
221.7884561807
 11
53.5015501648
 21
222.0048649542
  0
LINE
  8
Layer0$C$L0
 62
     3
 10
53.2565999690
 20
221.6373579351
 11
53.3884903785
 21
221.7884561807
  0
LINE
  8
Layer0$C$L0
 62
     3
 10
53.1129891824
 20
221.5597159628
 11
53.2565999690
 21
221.6373579351
  0
LINE
  8
Layer0$C$L0
 62
     3
 10
52.9654001133
 20
221.5597159628
 11
53.1129891824
 21
221.5597159628
  0
LINE
  8
Layer0$C$L0
 62
     3
 10
52.8217893266
 20
221.6373579351
 11
52.9654001133
 21
221.5597159628
  0
LINE
  8
Layer0$C$L0
 62
     3
 10
52.6898989171
 20
221.7884561807
 11
52.8217893266
 21
221.6373579351
  0
LINE
  8
Layer0$C$L0
 62
     3
 10
52.5768391308
 20
222.0048649542
 11
52.6898989171
 21
221.7884561807
  0
LINE
  8
Layer0$C$L0
 62
     3
 10
52.4887050502
 20
222.2749176025
 11
52.5768391308
 21
222.0048649542
  0
LINE
  8
Layer0$C$L0
 62
     3
 10
52.4302480062
 20
222.5840555176
 11
52.4887050502
 21
222.2749176025
  0
LINE
  8
Layer0$C$L0
 62
     3
 10
52.4046194333
 20
222.9156129944
 11
52.4302480062
 21
222.5840555176
  0
LINE
  8
Layer0$C$L0
 62
     3
 10
52.4132009745
 20
223.2517156834
 11
52.4046194333
 21
222.9156129944
  0
LINE
  8
Layer0$C$L0
 62
     3
 10
52.4555299966
 20
223.5742442018
 11
52.4132009745
 21
223.2517156834
  0
LINE
  8
Layer0$C$L0
 62
     3
 10
52.5293245312
 20
223.8658109536
 11
52.4555299966
 21
223.5742442018
  0
LINE
  8
Layer0$C$L0
 62
     3
 10
52.6306062957
 20
224.1106974997
 11
52.5293245312
 21
223.8658109536
  0
LINE
  8
Layer0$C$L0
 62
     3
 10
52.7539151640
 20
224.2957019431
 11
52.6306062957
 21
224.1106974997
  0
LINE
  8
Layer0$C$L0
 62
     3
 10
52.8926035232
 20
224.4108506464
 11
52.7539151640
 21
224.2957019431
  0
LINE
  8
Layer0$C$L0
 62
     3
 10
53.0391946478
 20
224.4499359131
 11
52.8926035232
 21
224.4108506464
  0
LINE
  8
Layer0$C$L0
 62
     3
 10
53.1986942842
 20
224.7116820073
 11
53.0391946478
 21
224.7499237061
  0
LINE
  8
Layer0$C$L0
 62
     3
 10
53.3512230210
 20
224.5986282569
 11
53.1986942842
 21
224.7116820073
  0
LINE
  8
Layer0$C$L0
 62
     3
 10
53.4901146207
 20
224.4157034462
 11
53.3512230210
 21
224.5986282569
  0
LINE
  8
Layer0$C$L0
 62
     3
 10
53.6092988538
 20
224.1709022672
 11
53.4901146207
 21
224.4157034462
  0
LINE
  8
Layer0$C$L0
 62
     3
 10
53.7035667975
 20
223.8749237061
 11
53.6092988538
 21
224.1709022672
  0
LINE
  8
Layer0$C$L0
 62
     3
 10
53.7687984902
 20
223.5407034462
 11
53.7035667975
 21
223.8749237061
  0
LINE
  8
Layer0$C$L0
 62
     3
 10
53.8021429939
 20
223.1828485168
 11
53.7687984902
 21
223.5407034462
  0
LINE
  8
Layer0$C$L0
 62
     3
 10
53.8021429939
 20
222.8169988953
 11
53.8021429939
 21
223.1828485168
  0
LINE
  8
Layer0$C$L0
 62
     3
 10
53.7687984902
 20
222.4591439659
 11
53.8021429939
 21
222.8169988953
  0
LINE
  8
Layer0$C$L0
 62
     3
 10
53.7035667975
 20
222.1249237061
 11
53.7687984902
 21
222.4591439659
  0
LINE
  8
Layer0$C$L0
 62
     3
 10
53.6092988538
 20
221.8289451449
 11
53.7035667975
 21
222.1249237061
  0
LINE
  8
Layer0$C$L0
 62
     3
 10
53.4901146207
 20
221.5841439659
 11
53.6092988538
 21
221.8289451449
  0
LINE
  8
Layer0$C$L0
 62
     3
 10
52.4690904418
 20
221.8289451449
 11
52.5882746749
 21
221.5841439659
  0
LINE
  8
Layer0$C$L0
 62
     3
 10
52.5882746749
 20
224.4157034462
 11
52.4690904418
 21
224.1709022672
  0
LINE
  8
Layer0$C$L0
 62
     3
 10
52.7271662746
 20
224.5986282569
 11
52.5882746749
 21
224.4157034462
  0
LINE
  8
Layer0$C$L0
 62
     3
 10
52.8796950115
 20
224.7116820073
 11
52.7271662746
 21
224.5986282569
  0
LINE
  8
Layer0$C$L0
 62
     3
 10
53.0391946478
 20
224.7499237061
 11
52.8796950115
 21
224.7116820073
  0
LINE
  8
Layer0$C$L0
 62
     3
 10
52.9253335638
 20
226.7999420166
 11
52.9253335638
 21
226.9999237061
  0
LINE
  8
Layer0$C$L0
 62
     3
 10
51.6268024349
 20
224.3740116070
 11
51.5109243456
 21
224.5462621171
  0
LINE
  8
Layer0$C$L0
 62
     3
 10
51.7272390542
 20
224.1570972993
 11
51.6268024349
 21
224.3740116070
  0
LINE
  8
Layer0$C$L0
 62
     3
 10
51.8089695789
 20
223.9025698467
 11
51.7272390542
 21
224.1570972993
  0
LINE
  8
Layer0$C$L0
 62
     3
 10
51.8693374139
 20
223.6187024920
 11
51.8089695789
 21
223.9025698467
  0
LINE
  8
Layer0$C$L0
 62
     3
 10
51.9063803433
 20
223.3147221515
 11
51.8693374139
 21
223.6187024920
  0
LINE
  8
Layer0$C$L0
 62
     3
 10
51.9188943119
 20
223.0005095005
 11
51.9063803433
 21
223.3147221515
  0
LINE
  8
Layer0$C$L0
 62
     3
 10
51.9064725615
 20
222.6862778086
 11
51.9188943119
 21
223.0005095005
  0
LINE
  8
Layer0$C$L0
 62
     3
 10
51.8695188528
 20
222.3822409644
 11
51.9064725615
 21
222.6862778086
  0
LINE
  8
Layer0$C$L0
 62
     3
 10
51.8092343411
 20
222.0982814799
 11
51.8695188528
 21
222.3822409644
  0
LINE
  8
Layer0$C$L0
 62
     3
 10
51.7275785336
 20
221.8436292660
 11
51.8092343411
 21
222.0982814799
  0
LINE
  8
Layer0$C$L0
 62
     3
 10
51.6272055971
 20
221.6265616206
 11
51.7275785336
 21
221.8436292660
  0
LINE
  8
Layer0$C$L0
 62
     3
 10
51.5573638065
 20
223.6865309290
 11
51.5107587827
 21
223.8956857083
  0
LINE
  8
Layer0$C$L0
 62
     3
 10
51.5912849926
 20
223.4650344013
 11
51.5573638065
 21
223.6865309290
  0
LINE
  8
Layer0$C$L0
 62
     3
 10
51.6119126085
 20
223.2351775200
 11
51.5912849926
 21
223.4650344013
  0
LINE
  8
Layer0$C$L0
 62
     3
 10
51.6188758734
 20
223.0010919570
 11
51.6119126085
 21
223.2351775200
  0
LINE
  8
Layer0$C$L0
 62
     3
 10
51.6120496226
 20
222.7669853947
 11
51.6188758734
 21
223.0010919570
  0
LINE
  8
Layer0$C$L0
 62
     3
 10
51.5915565579
 20
222.5370658930
 11
51.6120496226
 21
222.7669853947
  0
LINE
  8
Layer0$C$L0
 62
     3
 10
51.5577650416
 20
222.3154662494
 11
51.5915565579
 21
222.5370658930
  0
LINE
  8
Layer0$C$L0
 62
     3
 10
51.5112824754
 20
222.1061697123
 11
51.5577650416
 21
222.3154662494
  0
LINE
  8
Layer0$C$L0
 62
     3
 10
51.5111489935
 20
226.9999237061
 11
52.9253335638
 21
226.9999237061
  0
LINE
  8
Layer0$C$L0
 62
     3
 10
51.1681619330
 20
227.0999298096
 11
51.1681619330
 21
228.2999420166
  0
LINE
  8
Layer0$C$L0
 62
     3
 10
47.9217324896
 20
228.2999420166
 11
47.9217324896
 21
231.3999481201
  0
LINE
  8
Layer0$C$L0
 62
     3
 10
50.0117288275
 20
228.2999420166
 11
50.0117288275
 21
236.6999359131
  0
LINE
  8
Layer0$C$L0
 62
     3
 10
50.9884133978
 20
228.2999420166
 11
50.9884133978
 21
236.6999359131
  0
LINE
  8
Layer0$C$L0
 62
     3
 10
43.5462423643
 20
238.9195404155
 11
43.7309482186
 21
239.0028100124
  0
LINE
  8
Layer0$C$L0
 62
     3
 10
43.8022866888
 20
242.4999542236
 11
43.3984780951
 21
242.4999542236
  0
LINE
  8
Layer0$C$L0
 62
     3
 10
43.8022561713
 20
241.4999542236
 11
43.3984780951
 21
241.4999542236
  0
LINE
  8
Layer0$C$L0
 62
     3
 10
43.3984779890
 20
241.4996490479
 11
43.3325171374
 21
241.4881200667
  0
LINE
  8
Layer0$C$L0
 62
     3
 10
43.3325171374
 20
242.5114832048
 11
43.3984779890
 21
242.4999542236
  0
LINE
  8
Layer0$C$L0
 62
     3
 10
43.3584627789
 20
238.9016720198
 11
43.5462423643
 21
238.9195404155
  0
LINE
  8
Layer0$C$L0
 62
     3
 10
44.1434509436
 20
244.1497025512
 11
44.0039774935
 21
244.4012913394
  0
LINE
  8
Layer0$C$L0
 62
     3
 10
44.3631692927
 20
244.0655775232
 11
44.2280720264
 21
244.3795688808
  0
LINE
  8
Layer0$C$L0
 62
     3
 10
43.8150591570
 20
242.3768540837
 11
43.8022647128
 21
242.4998514764
  0
LINE
  8
Layer0$C$L0
 62
     3
 10
43.8242399301
 20
242.2521882904
 11
43.8150591570
 21
242.3768540837
  0
LINE
  8
Layer0$C$L0
 62
     3
 10
43.8297663920
 20
242.1264059475
 11
43.8242399301
 21
242.2521882904
  0
LINE
  8
Layer0$C$L0
 62
     3
 10
43.8316140792
 20
242.0000638481
 11
43.8297663920
 21
242.1264059475
  0
LINE
  8
Layer0$C$L0
 62
     3
 10
43.8297748124
 20
241.8737212635
 11
43.8316140792
 21
242.0000638481
  0
LINE
  8
Layer0$C$L0
 62
     3
 10
43.8242567336
 20
241.7479374669
 11
43.8297748124
 21
241.8737212635
  0
LINE
  8
Layer0$C$L0
 62
     3
 10
43.8150842693
 20
241.6232692581
 11
43.8242567336
 21
241.7479374669
  0
LINE
  8
Layer0$C$L0
 62
     3
 10
43.8022980227
 20
241.5002684984
 11
43.8150842693
 21
241.6232692581
  0
LINE
  8
Layer0$C$L0
 62
     3
 10
44.2662218935
 20
243.8562930819
 11
44.1434509436
 21
244.1497025512
  0
LINE
  8
Layer0$C$L0
 62
     3
 10
44.3699019871
 20
243.5267708479
 11
44.2662218935
 21
243.8562930819
  0
LINE
  8
Layer0$C$L0
 62
     3
 10
44.4524742570
 20
243.1675462946
 11
44.3699019871
 21
243.5267708479
  0
LINE
  8
Layer0$C$L0
 62
     3
 10
44.5123323623
 20
242.7856076892
 11
44.4524742570
 21
243.1675462946
  0
LINE
  8
Layer0$C$L0
 62
     3
 10
44.5483118381
 20
242.3883851722
 11
44.5123323623
 21
242.7856076892
  0
LINE
  8
Layer0$C$L0
 62
     3
 10
44.5597127483
 20
241.9836062141
 11
44.5483118381
 21
242.3883851722
  0
LINE
  8
Layer0$C$L0
 62
     3
 10
44.5463133024
 20
241.5791452862
 11
44.5597127483
 21
241.9836062141
  0
LINE
  8
Layer0$C$L0
 62
     3
 10
44.5083741700
 20
241.1828706730
 11
44.5463133024
 21
241.5791452862
  0
LINE
  8
Layer0$C$L0
 62
     3
 10
44.4466334098
 20
240.8024914045
 11
44.5083741700
 21
241.1828706730
  0
LINE
  8
Layer0$C$L0
 62
     3
 10
44.3622921114
 20
240.4454072864
 11
44.4466334098
 21
240.8024914045
  0
LINE
  8
Layer0$C$L0
 62
     3
 10
44.2569910301
 20
240.1185649464
 11
44.3622921114
 21
240.4454072864
  0
LINE
  8
Layer0$C$L0
 62
     3
 10
44.1327786673
 20
239.8283226958
 11
44.2569910301
 21
240.1185649464
  0
LINE
  8
Layer0$C$L0
 62
     3
 10
43.9920714202
 20
239.5803268369
 11
44.1327786673
 21
239.8283226958
  0
LINE
  8
Layer0$C$L0
 62
     3
 10
43.8376065734
 20
239.3794018207
 11
43.9920714202
 21
239.5803268369
  0
LINE
  8
Layer0$C$L0
 62
     3
 10
44.4778484042
 20
243.7077302899
 11
44.3631692927
 21
244.0655775232
  0
LINE
  8
Layer0$C$L0
 62
     3
 10
44.5696745737
 20
243.3136247443
 11
44.4778484042
 21
243.7077302899
  0
LINE
  8
Layer0$C$L0
 62
     3
 10
44.6366982120
 20
242.8916282608
 11
44.5696745737
 21
243.3136247443
  0
LINE
  8
Layer0$C$L0
 62
     3
 10
44.6774963199
 20
242.4507003751
 11
44.6366982120
 21
242.8916282608
  0
LINE
  8
Layer0$C$L0
 62
     3
 10
44.6912027003
 20
242.0002025609
 11
44.6774963199
 21
242.4507003751
  0
LINE
  8
Layer0$C$L0
 62
     3
 10
44.6775263490
 20
241.5496994742
 11
44.6912027003
 21
242.0002025609
  0
LINE
  8
Layer0$C$L0
 62
     3
 10
44.6367576326
 20
241.1087558828
 11
44.6775263490
 21
241.5496994742
  0
LINE
  8
Layer0$C$L0
 62
     3
 10
44.5697621243
 20
240.6867335941
 11
44.6367576326
 21
241.1087558828
  0
LINE
  8
Layer0$C$L0
 62
     3
 10
44.4779622259
 20
240.2925926914
 11
44.5697621243
 21
240.6867335941
  0
LINE
  8
Layer0$C$L0
 62
     3
 10
44.3633069690
 20
239.9347013000
 11
44.4779622259
 21
240.2925926914
  0
LINE
  8
Layer0$C$L0
 62
     3
 10
44.2282306342
 20
239.6206579206
 11
44.3633069690
 21
239.9347013000
  0
LINE
  8
Layer0$C$L0
 62
     3
 10
44.0756010682
 20
239.3571301037
 11
44.2282306342
 21
239.6206579206
  0
LINE
  8
Layer0$C$L0
 62
     3
 10
43.9086587956
 20
239.1497128883
 11
44.0756010682
 21
239.3571301037
  0
LINE
  8
Layer0$C$L0
 62
     3
 10
43.7309482186
 20
239.0028100124
 11
43.9086587956
 21
239.1497128883
  0
LINE
  8
Layer0$C$L0
 62
     3
 10
45.5117288275
 20
236.6999359131
 11
45.5117288275
 21
233.5999298096
  0
ARC
  8
Layer0$C$L0
 62
     3
 10
45.2954202338
 20
236.9999542236
 40
0.3000000119
 50
180.0000359722
 51
270.0000179861
  0
LINE
  8
Layer0$C$L0
 62
     3
 10
42.5502757477
 20
244.3767136155
 11
42.4054394826
 21
244.1053140856
  0
LINE
  8
Layer0$C$L0
 62
     3
 10
42.1823669790
 20
241.6230546439
 11
42.1951613888
 21
241.5000574661
  0
LINE
  8
Layer0$C$L0
 62
     3
 10
42.1731862274
 20
241.7477202148
 11
42.1823669790
 21
241.6230546439
  0
LINE
  8
Layer0$C$L0
 62
     3
 10
42.1676597738
 20
241.8735023312
 11
42.1731862274
 21
241.7477202148
  0
LINE
  8
Layer0$C$L0
 62
     3
 10
42.1658120817
 20
241.9998442028
 11
42.1676597738
 21
241.8735023312
  0
LINE
  8
Layer0$C$L0
 62
     3
 10
42.1676513303
 20
242.1261865613
 11
42.1658120817
 21
241.9998442028
  0
LINE
  8
Layer0$C$L0
 62
     3
 10
42.1731693778
 20
242.2519701366
 11
42.1676513303
 21
242.1261865613
  0
LINE
  8
Layer0$C$L0
 62
     3
 10
42.1823417978
 20
242.3766381319
 11
42.1731693778
 21
242.2519701366
  0
LINE
  8
Layer0$C$L0
 62
     3
 10
42.1951279876
 20
242.4996386887
 11
42.1823417978
 21
242.3766381319
  0
LINE
  8
Layer0$C$L0
 62
     3
 10
42.4709546012
 20
241.4879755160
 11
42.4340615322
 21
241.4996490479
  0
LINE
  8
Layer0$C$L0
 62
     3
 10
42.5064127016
 20
241.4534090811
 11
42.4709546012
 21
241.4879755160
  0
LINE
  8
Layer0$C$L0
 62
     3
 10
42.5390561054
 20
241.3972947750
 11
42.5064127016
 21
241.4534090811
  0
LINE
  8
Layer0$C$L0
 62
     3
 10
42.5676146090
 20
241.3218160896
 11
42.5390561054
 21
241.3972947750
  0
LINE
  8
Layer0$C$L0
 62
     3
 10
42.5909769580
 20
241.2299100137
 11
42.5676146090
 21
241.3218160896
  0
LINE
  8
Layer0$C$L0
 62
     3
 10
42.6082340883
 20
241.1251527506
 11
42.5909769580
 21
241.2299100137
  0
LINE
  8
Layer0$C$L0
 62
     3
 10
42.6187144993
 20
241.0116205626
 11
42.6082340883
 21
241.1251527506
  0
LINE
  8
Layer0$C$L0
 62
     3
 10
42.6220103823
 20
240.8937311575
 11
42.6187144993
 21
241.0116205626
  0
LINE
  8
Layer0$C$L0
 62
     3
 10
42.6184530191
 20
242.9832812764
 11
42.6220191731
 21
243.1004422771
  0
LINE
  8
Layer0$C$L0
 62
     3
 10
42.6077895872
 20
242.8705999095
 11
42.6184530191
 21
242.9832812764
  0
LINE
  8
Layer0$C$L0
 62
     3
 10
42.5904393497
 20
242.7667356731
 11
42.6077895872
 21
242.8705999095
  0
LINE
  8
Layer0$C$L0
 62
     3
 10
42.5670701775
 20
242.6756866617
 11
42.5904393497
 21
242.7667356731
  0
LINE
  8
Layer0$C$L0
 62
     3
 10
42.5385816310
 20
242.6009576674
 11
42.5670701775
 21
242.6756866617
  0
LINE
  8
Layer0$C$L0
 62
     3
 10
42.5060703331
 20
242.5454252682
 11
42.5385816310
 21
242.6009576674
  0
LINE
  8
Layer0$C$L0
 62
     3
 10
42.4707877565
 20
242.5112270989
 11
42.5060703331
 21
242.5454252682
  0
LINE
  8
Layer0$C$L0
 62
     3
 10
42.4340920498
 20
242.4996795654
 11
42.4707877565
 21
242.5112270989
  0
LINE
  8
Layer0$C$L0
 62
     3
 10
43.0668704228
 20
241.0166983052
 11
43.0603738470
 21
240.8996429443
  0
LINE
  8
Layer0$C$L0
 62
     3
 10
43.0861104903
 20
241.1292552960
 11
43.0668704228
 21
241.0166983052
  0
LINE
  8
Layer0$C$L0
 62
     3
 10
43.1173546649
 20
241.2329884164
 11
43.0861104903
 21
241.1292552960
  0
LINE
  8
Layer0$C$L0
 62
     3
 10
43.1594022510
 20
241.3239112623
 11
43.1173546649
 21
241.2329884164
  0
LINE
  8
Layer0$C$L0
 62
     3
 10
43.2106373841
 20
241.3985297212
 11
43.1594022510
 21
241.3239112623
  0
LINE
  8
Layer0$C$L0
 62
     3
 10
43.2690911274
 20
241.4539762487
 11
43.2106373841
 21
241.3985297212
  0
LINE
  8
Layer0$C$L0
 62
     3
 10
43.2106373841
 20
242.6010735503
 11
43.2690911274
 21
242.5456270228
  0
LINE
  8
Layer0$C$L0
 62
     3
 10
43.1594022510
 20
242.6756920092
 11
43.2106373841
 21
242.6010735503
  0
LINE
  8
Layer0$C$L0
 62
     3
 10
43.1173546649
 20
242.7666148551
 11
43.1594022510
 21
242.6756920092
  0
LINE
  8
Layer0$C$L0
 62
     3
 10
43.0861104903
 20
242.8703479755
 11
43.1173546649
 21
242.7666148551
  0
LINE
  8
Layer0$C$L0
 62
     3
 10
43.0668704228
 20
242.9829049663
 11
43.0861104903
 21
242.8703479755
  0
LINE
  8
Layer0$C$L0
 62
     3
 10
43.0603738470
 20
243.0999603271
 11
43.0668704228
 21
242.9829049663
  0
LINE
  8
Layer0$C$L0
 62
     3
 10
42.6273291784
 20
243.1823912082
 11
42.6220353309
 21
243.1006882880
  0
LINE
  8
Layer0$C$L0
 62
     3
 10
42.6330016015
 20
243.2639682335
 11
42.6273291784
 21
243.1823912082
  0
LINE
  8
Layer0$C$L0
 62
     3
 10
42.6390519965
 20
243.3454106784
 11
42.6330016015
 21
243.2639682335
  0
LINE
  8
Layer0$C$L0
 62
     3
 10
42.6454797190
 20
243.4267098716
 11
42.6390519965
 21
243.3454106784
  0
LINE
  8
Layer0$C$L0
 62
     3
 10
42.6522840847
 20
243.5078571571
 11
42.6454797190
 21
243.4267098716
  0
LINE
  8
Layer0$C$L0
 62
     3
 10
42.6594643693
 20
243.5888438951
 11
42.6522840847
 21
243.5078571571
  0
LINE
  8
Layer0$C$L0
 62
     3
 10
42.6670198080
 20
243.6696614628
 11
42.6594643693
 21
243.5888438951
  0
LINE
  8
Layer0$C$L0
 62
     3
 10
42.6749495966
 20
243.7503012557
 11
42.6670198080
 21
243.6696614628
  0
LINE
  8
Layer0$C$L0
 62
     3
 10
43.0665834037
 20
243.1953287297
 11
43.0601894059
 21
243.0970500300
  0
LINE
  8
Layer0$C$L0
 62
     3
 10
43.0735251284
 20
243.2934232455
 11
43.0665834037
 21
243.1953287297
  0
LINE
  8
Layer0$C$L0
 62
     3
 10
43.0810135103
 20
243.3913184630
 11
43.0735251284
 21
243.2934232455
  0
LINE
  8
Layer0$C$L0
 62
     3
 10
43.0890473957
 20
243.4889992985
 11
43.0810135103
 21
243.3913184630
  0
LINE
  8
Layer0$C$L0
 62
     3
 10
43.0976255467
 20
243.5864507012
 11
43.0890473957
 21
243.4889992985
  0
LINE
  8
Layer0$C$L0
 62
     3
 10
43.1067466415
 20
243.6836576557
 11
43.0976255467
 21
243.5864507012
  0
LINE
  8
Layer0$C$L0
 62
     3
 10
43.1164092748
 20
243.7806051845
 11
43.1067466415
 21
243.6836576557
  0
LINE
  8
Layer0$C$L0
 62
     3
 10
43.1266119577
 20
243.8772783497
 11
43.1164092748
 21
243.7806051845
  0
LINE
  8
Layer0$C$L0
 62
     3
 10
43.1165028797
 20
240.2184573746
 11
43.1267166491
 21
240.1217313409
  0
LINE
  8
Layer0$C$L0
 62
     3
 10
43.1068297649
 20
240.3154582169
 11
43.1165028797
 21
240.2184573746
  0
LINE
  8
Layer0$C$L0
 62
     3
 10
43.0976987967
 20
240.4127189049
 11
43.1068297649
 21
240.3154582169
  0
LINE
  8
Layer0$C$L0
 62
     3
 10
43.0891113836
 20
240.5102244352
 11
43.0976987967
 21
240.4127189049
  0
LINE
  8
Layer0$C$L0
 62
     3
 10
43.0810688504
 20
240.6079597671
 11
43.0891113836
 21
240.5102244352
  0
LINE
  8
Layer0$C$L0
 62
     3
 10
43.0735724377
 20
240.7059098240
 11
43.0810688504
 21
240.6079597671
  0
LINE
  8
Layer0$C$L0
 62
     3
 10
43.0666233018
 20
240.8040594966
 11
43.0735724377
 21
240.7059098240
  0
LINE
  8
Layer0$C$L0
 62
     3
 10
43.0602225147
 20
240.9023936444
 11
43.0666233018
 21
240.8040594966
  0
LINE
  8
Layer0$C$L0
 62
     3
 10
42.6670723734
 20
240.3296325923
 11
42.6750119465
 21
240.2489223003
  0
LINE
  8
Layer0$C$L0
 62
     3
 10
42.6595078130
 20
240.4105210422
 11
42.6670723734
 21
240.3296325923
  0
LINE
  8
Layer0$C$L0
 62
     3
 10
42.6523190722
 20
240.4915790224
 11
42.6595078130
 21
240.4105210422
  0
LINE
  8
Layer0$C$L0
 62
     3
 10
42.6455069177
 20
240.5727978871
 11
42.6523190722
 21
240.4915790224
  0
LINE
  8
Layer0$C$L0
 62
     3
 10
42.6390720761
 20
240.6541689735
 11
42.6455069177
 21
240.5727978871
  0
LINE
  8
Layer0$C$L0
 62
     3
 10
42.6330152337
 20
240.7356836025
 11
42.6390720761
 21
240.6541689735
  0
LINE
  8
Layer0$C$L0
 62
     3
 10
42.6273370366
 20
240.8173330796
 11
42.6330152337
 21
240.7356836025
  0
LINE
  8
Layer0$C$L0
 62
     3
 10
42.6220380904
 20
240.8991086961
 11
42.6273370366
 21
240.8173330796
  0
LINE
  8
Layer0$C$L0
 62
     3
 10
42.7287033176
 20
243.7973510899
 11
42.6748899625
 21
243.7504827386
  0
LINE
  8
Layer0$C$L0
 62
     3
 10
42.7838081143
 20
243.8356225928
 11
42.7287033176
 21
243.7973510899
  0
LINE
  8
Layer0$C$L0
 62
     3
 10
42.8399407894
 20
243.8651141970
 11
42.7838081143
 21
243.8356225928
  0
LINE
  8
Layer0$C$L0
 62
     3
 10
42.8968328635
 20
243.8856848458
 11
42.8399407894
 21
243.8651141970
  0
LINE
  8
Layer0$C$L0
 62
     3
 10
42.9542122249
 20
243.8972361508
 11
42.8968328635
 21
243.8856848458
  0
LINE
  8
Layer0$C$L0
 62
     3
 10
43.0118044314
 20
243.8997128629
 11
42.9542122249
 21
243.8972361508
  0
LINE
  8
Layer0$C$L0
 62
     3
 10
43.0693340227
 20
243.8931031360
 11
43.0118044314
 21
243.8997128629
  0
LINE
  8
Layer0$C$L0
 62
     3
 10
43.1265258380
 20
243.8774385842
 11
43.0693340227
 21
243.8931031360
  0
LINE
  8
Layer0$C$L0
 62
     3
 10
43.0691712149
 20
240.1067678481
 11
43.1263362165
 21
240.1223920650
  0
LINE
  8
Layer0$C$L0
 62
     3
 10
43.0116695491
 20
240.1001896839
 11
43.0691712149
 21
240.1067678481
  0
LINE
  8
Layer0$C$L0
 62
     3
 10
42.9541059746
 20
240.1026890042
 11
43.0116695491
 21
240.1001896839
  0
LINE
  8
Layer0$C$L0
 62
     3
 10
42.8967555424
 20
240.1142538668
 11
42.9541059746
 21
240.1026890042
  0
LINE
  8
Layer0$C$L0
 62
     3
 10
42.8398922853
 20
240.1348290123
 11
42.8967555424
 21
240.1142538668
  0
LINE
  8
Layer0$C$L0
 62
     3
 10
42.7837879082
 20
240.1643161281
 11
42.8398922853
 21
240.1348290123
  0
LINE
  8
Layer0$C$L0
 62
     3
 10
42.7287104899
 20
240.2025743185
 11
42.7837879082
 21
240.1643161281
  0
LINE
  8
Layer0$C$L0
 62
     3
 10
42.6749232022
 20
240.2494207776
 11
42.7287104899
 21
240.2025743185
  0
LINE
  8
Layer0$C$L0
 62
     3
 10
43.0654728053
 20
239.1352275010
 11
43.2519843617
 21
239.0928098365
  0
LINE
  8
Layer0$C$L0
 62
     3
 10
42.8837039873
 20
239.2395705343
 11
43.0654728053
 21
239.1352275010
  0
LINE
  8
Layer0$C$L0
 62
     3
 10
42.7106071135
 20
239.4035834052
 11
42.8837039873
 21
239.2395705343
  0
LINE
  8
Layer0$C$L0
 62
     3
 10
42.5499239326
 20
239.6237207292
 11
42.7106071135
 21
239.4035834052
  0
LINE
  8
Layer0$C$L0
 62
     3
 10
42.4051278529
 20
239.8952239076
 11
42.5499239326
 21
239.6237207292
  0
LINE
  8
Layer0$C$L0
 62
     3
 10
42.2793488591
 20
240.2122239914
 11
42.4051278529
 21
239.8952239076
  0
LINE
  8
Layer0$C$L0
 62
     3
 10
42.1753058528
 20
240.5678685482
 11
42.2793488591
 21
240.2122239914
  0
LINE
  8
Layer0$C$L0
 62
     3
 10
42.0952478799
 20
240.9544697867
 11
42.1753058528
 21
240.5678685482
  0
LINE
  8
Layer0$C$L0
 62
     3
 10
42.0409055137
 20
241.3636707409
 11
42.0952478799
 21
240.9544697867
  0
LINE
  8
Layer0$C$L0
 62
     3
 10
42.0134534459
 20
241.7866259178
 11
42.0409055137
 21
241.3636707409
  0
LINE
  8
Layer0$C$L0
 62
     3
 10
42.0134850942
 20
242.2141925063
 11
42.0134534459
 21
241.7866259178
  0
LINE
  8
Layer0$C$L0
 62
     3
 10
42.0409997746
 20
242.6371280127
 11
42.0134850942
 21
242.2141925063
  0
LINE
  8
Layer0$C$L0
 62
     3
 10
42.0954027158
 20
243.0462900511
 11
42.0409997746
 21
242.6371280127
  0
LINE
  8
Layer0$C$L0
 62
     3
 10
42.1755179167
 20
243.4328339698
 11
42.0954027158
 21
243.0462900511
  0
LINE
  8
Layer0$C$L0
 62
     3
 10
42.2796135669
 20
243.7884040415
 11
42.1755179167
 21
243.4328339698
  0
LINE
  8
Layer0$C$L0
 62
     3
 10
42.4054394826
 20
244.1053140856
 11
42.2796135669
 21
243.7884040415
  0
LINE
  8
Layer0$C$L0
 62
     3
 10
42.9896102506
 20
239.0622597018
 11
43.1715962678
 21
238.9495841945
  0
LINE
  8
Layer0$C$L0
 62
     3
 10
42.8163685277
 20
239.2373062937
 11
42.9896102506
 21
239.0622597018
  0
LINE
  8
Layer0$C$L0
 62
     3
 10
42.6555492468
 20
239.4710075028
 11
42.8163685277
 21
239.2373062937
  0
ARC
  8
Layer0$C$L0
 62
     3
 10
37.5117288275
 20
241.9999542236
 40
5.0000000000
 50
19.2047365875
 51
23.0739158089
  0
ARC
  8
Layer0$C$L0
 62
     3
 10
37.5117288275
 20
241.9999542236
 40
5.0000000000
 50
336.9260807760
 51
340.7948160352
  0
LINE
  8
Layer0$C$L0
 62
     3
 10
42.4340615912
 20
241.4999542236
 11
42.1951394720
 21
241.4999542236
  0
LINE
  8
Layer0$C$L0
 62
     3
 10
42.4343362494
 20
242.4999542236
 11
42.1951394720
 21
242.4999542236
  0
ARC
  8
Layer0$C$L0
 62
     3
 10
42.4117227240
 20
238.1999359131
 40
0.3000000119
 50
180.0000359722
 51
270.0000179861
  0
LINE
  8
Layer0$C$L0
 62
     3
 10
43.0117288275
 20
237.8999481201
 11
43.0117288275
 21
236.9999542236
  0
LINE
  8
Layer0$C$L0
 62
     3
 10
43.0117288275
 20
237.8999481201
 11
42.4117227240
 21
237.8999481201
  0
LINE
  8
Layer0$C$L0
 62
     3
 10
42.1117349310
 20
238.1999359131
 11
42.1117349310
 21
240.0403594971
  0
ARC
  8
Layer0$C$L0
 62
     3
 10
43.3117166205
 20
236.9999542236
 40
0.3000000119
 50
180.0000359722
 51
270.0000179861
  0
LINE
  8
Layer0$C$L0
 62
     3
 10
43.2522651179
 20
239.0927411102
 11
43.8106724102
 21
239.0601651058
  0
LINE
  8
Layer0$C$L0
 62
     3
 10
43.3325171374
 20
241.4881200667
 11
43.2690911274
 21
241.4539762487
  0
LINE
  8
Layer0$C$L0
 62
     3
 10
43.2690911274
 20
242.5456270228
 11
43.3325171374
 21
242.5114832048
  0
LINE
  8
Layer0$C$L0
 62
     3
 10
43.1715962678
 20
238.9495841945
 11
43.3584627789
 21
238.9016720198
  0
LINE
  8
Layer0$C$L0
 62
     3
 10
45.5117288275
 20
228.2999420166
 11
45.5117288275
 21
231.3999481201
  0
LINE
  8
Layer0$C$L0
 62
     3
 10
43.5117288275
 20
231.6407928467
 11
43.5117288275
 21
232.3040618896
  0
ARC
  8
Layer0$C$L0
 62
     3
 10
45.2954202338
 20
227.9999237061
 40
0.3000000119
 50
89.9999820139
 51
179.9999640278
  0
LINE
  8
Layer0$C$L0
 62
     3
 10
43.7309438142
 20
225.9970679173
 11
43.5462405551
 21
226.0803375142
  0
LINE
  8
Layer0$C$L0
 62
     3
 10
43.8022866888
 20
222.4999237061
 11
43.3984780951
 21
222.4999237061
  0
LINE
  8
Layer0$C$L0
 62
     3
 10
43.8022561713
 20
223.4999237061
 11
43.3984780951
 21
223.4999237061
  0
LINE
  8
Layer0$C$L0
 62
     3
 10
43.3325171374
 20
223.5117578630
 11
43.3984779890
 21
223.5002288818
  0
LINE
  8
Layer0$C$L0
 62
     3
 10
43.3984779890
 20
222.4999237061
 11
43.3325171374
 21
222.4883947249
  0
LINE
  8
Layer0$C$L0
 62
     3
 10
43.5462405551
 20
226.0803375142
 11
43.3584632792
 21
226.0982059099
  0
LINE
  8
Layer0$C$L0
 62
     3
 10
43.8150809413
 20
223.3766086716
 11
43.8022934726
 21
223.4996094313
  0
LINE
  8
Layer0$C$L0
 62
     3
 10
43.8242545749
 20
223.2519404627
 11
43.8150809413
 21
223.3766086716
  0
LINE
  8
Layer0$C$L0
 62
     3
 10
43.8297737649
 20
223.1261566662
 11
43.8242545749
 21
223.2519404627
  0
LINE
  8
Layer0$C$L0
 62
     3
 10
43.8316140800
 20
222.9998140815
 11
43.8297737649
 21
223.1261566662
  0
LINE
  8
Layer0$C$L0
 62
     3
 10
43.8297673737
 20
222.8734719822
 11
43.8316140800
 21
222.9998140815
  0
LINE
  8
Layer0$C$L0
 62
     3
 10
43.8242418207
 20
222.7476896393
 11
43.8297673737
 21
222.8734719822
  0
LINE
  8
Layer0$C$L0
 62
     3
 10
43.8150618807
 20
222.6230238460
 11
43.8242418207
 21
222.7476896393
  0
LINE
  8
Layer0$C$L0
 62
     3
 10
43.8022681899
 20
222.5000264532
 11
43.8150618807
 21
222.6230238460
  0
LINE
  8
Layer0$C$L0
 62
     3
 10
43.9920968117
 20
225.4195510928
 11
43.8376340734
 21
225.6204761090
  0
LINE
  8
Layer0$C$L0
 62
     3
 10
44.1328014563
 20
225.1715552338
 11
43.9920968117
 21
225.4195510928
  0
LINE
  8
Layer0$C$L0
 62
     3
 10
44.2570107733
 20
224.8813129833
 11
44.1328014563
 21
225.1715552338
  0
LINE
  8
Layer0$C$L0
 62
     3
 10
44.3623084248
 20
224.5544706433
 11
44.2570107733
 21
224.8813129833
  0
LINE
  8
Layer0$C$L0
 62
     3
 10
44.4466459759
 20
224.1973865252
 11
44.3623084248
 21
224.5544706433
  0
LINE
  8
Layer0$C$L0
 62
     3
 10
44.5083827445
 20
223.8170072567
 11
44.4466459759
 21
224.1973865252
  0
LINE
  8
Layer0$C$L0
 62
     3
 10
44.5463177184
 20
223.4207326435
 11
44.5083827445
 21
223.8170072567
  0
LINE
  8
Layer0$C$L0
 62
     3
 10
44.5597129198
 20
223.0162717156
 11
44.5463177184
 21
223.4207326435
  0
LINE
  8
Layer0$C$L0
 62
     3
 10
44.5483077619
 20
222.6114927574
 11
44.5597129198
 21
223.0162717156
  0
LINE
  8
Layer0$C$L0
 62
     3
 10
44.5123241177
 20
222.2142702405
 11
44.5483077619
 21
222.6114927574
  0
LINE
  8
Layer0$C$L0
 62
     3
 10
44.4524620043
 20
221.8323316350
 11
44.5123241177
 21
222.2142702405
  0
LINE
  8
Layer0$C$L0
 62
     3
 10
43.9086515657
 20
225.8501650414
 11
43.7309438142
 21
225.9970679173
  0
LINE
  8
Layer0$C$L0
 62
     3
 10
44.0755908422
 20
225.6427478260
 11
43.9086515657
 21
225.8501650414
  0
LINE
  8
Layer0$C$L0
 62
     3
 10
44.2282173054
 20
225.3792200091
 11
44.0755908422
 21
225.6427478260
  0
LINE
  8
Layer0$C$L0
 62
     3
 10
44.3632904963
 20
225.0651766297
 11
44.2282173054
 21
225.3792200091
  0
LINE
  8
Layer0$C$L0
 62
     3
 10
44.4779426351
 20
224.7072852383
 11
44.3632904963
 21
225.0651766297
  0
LINE
  8
Layer0$C$L0
 62
     3
 10
44.5697395074
 20
224.3131443356
 11
44.4779426351
 21
224.7072852383
  0
LINE
  8
Layer0$C$L0
 62
     3
 10
44.6367321458
 20
223.8911220468
 11
44.5697395074
 21
224.3131443356
  0
LINE
  8
Layer0$C$L0
 62
     3
 10
44.6774982094
 20
223.4501784555
 11
44.6367321458
 21
223.8911220468
  0
LINE
  8
Layer0$C$L0
 62
     3
 10
44.6911721815
 20
222.9996753688
 11
44.6774982094
 21
223.4501784555
  0
LINE
  8
Layer0$C$L0
 62
     3
 10
44.6774637458
 20
222.5491775546
 11
44.6911721815
 21
222.9996753688
  0
LINE
  8
Layer0$C$L0
 62
     3
 10
44.6366639503
 20
222.1082496689
 11
44.6774637458
 21
222.5491775546
  0
LINE
  8
Layer0$C$L0
 62
     3
 10
44.5696390278
 20
221.6862531854
 11
44.6366639503
 21
222.1082496689
  0
ARC
  8
Layer0$C$L0
 62
     3
 10
42.4117227240
 20
226.7999420166
 40
0.3000000119
 50
89.9999820139
 51
179.9999640278
  0
ARC
  8
Layer0$C$L0
 62
     3
 10
37.5117288275
 20
222.9999237061
 40
5.0000000000
 50
19.2051873799
 51
23.0739158089
  0
LINE
  8
Layer0$C$L0
 62
     3
 10
42.1823146083
 20
222.6232397978
 11
42.1951020201
 21
222.5002392410
  0
LINE
  8
Layer0$C$L0
 62
     3
 10
42.1731410189
 20
222.7479077931
 11
42.1823146083
 21
222.6232397978
  0
LINE
  8
Layer0$C$L0
 62
     3
 10
42.1676218602
 20
222.8736913684
 11
42.1731410189
 21
222.7479077931
  0
LINE
  8
Layer0$C$L0
 62
     3
 10
42.1657815633
 20
223.0000337269
 11
42.1676218602
 21
222.8736913684
  0
LINE
  8
Layer0$C$L0
 62
     3
 10
42.1676282745
 20
223.1263755985
 11
42.1657815633
 21
223.0000337269
  0
LINE
  8
Layer0$C$L0
 62
     3
 10
42.1731538192
 20
223.2521577149
 11
42.1676282745
 21
223.1263755985
  0
LINE
  8
Layer0$C$L0
 62
     3
 10
42.1823337378
 20
223.3768232858
 11
42.1731538192
 21
223.2521577149
  0
LINE
  8
Layer0$C$L0
 62
     3
 10
42.1951273942
 20
223.4998204636
 11
42.1823337378
 21
223.3768232858
  0
LINE
  8
Layer0$C$L0
 62
     3
 10
42.6187144993
 20
223.9882573671
 11
42.6220103823
 21
224.1061467722
  0
LINE
  8
Layer0$C$L0
 62
     3
 10
42.6082340883
 20
223.8747251791
 11
42.6187144993
 21
223.9882573671
  0
LINE
  8
Layer0$C$L0
 62
     3
 10
42.5909769580
 20
223.7699679160
 11
42.6082340883
 21
223.8747251791
  0
LINE
  8
Layer0$C$L0
 62
     3
 10
42.5676146090
 20
223.6780618401
 11
42.5909769580
 21
223.7699679160
  0
LINE
  8
Layer0$C$L0
 62
     3
 10
42.5390561054
 20
223.6025831547
 11
42.5676146090
 21
223.6780618401
  0
LINE
  8
Layer0$C$L0
 62
     3
 10
42.5064127016
 20
223.5464688486
 11
42.5390561054
 21
223.6025831547
  0
LINE
  8
Layer0$C$L0
 62
     3
 10
42.4709546012
 20
223.5119024137
 11
42.5064127016
 21
223.5464688486
  0
LINE
  8
Layer0$C$L0
 62
     3
 10
42.4340615322
 20
223.5002288818
 11
42.4709546012
 21
223.5119024137
  0
LINE
  8
Layer0$C$L0
 62
     3
 10
42.4707877565
 20
222.4886807610
 11
42.4340920498
 21
222.5002288818
  0
LINE
  8
Layer0$C$L0
 62
     3
 10
42.5060703331
 20
222.4544808522
 11
42.4707877565
 21
222.4886807610
  0
LINE
  8
Layer0$C$L0
 62
     3
 10
42.5385816310
 20
222.3989456284
 11
42.5060703331
 21
222.4544808522
  0
LINE
  8
Layer0$C$L0
 62
     3
 10
42.5670701775
 20
222.3242128330
 11
42.5385816310
 21
222.3989456284
  0
LINE
  8
Layer0$C$L0
 62
     3
 10
42.5904393497
 20
222.2331591904
 11
42.5670701775
 21
222.3242128330
  0
LINE
  8
Layer0$C$L0
 62
     3
 10
42.6077895872
 20
222.1292896710
 11
42.5904393497
 21
222.2331591904
  0
LINE
  8
Layer0$C$L0
 62
     3
 10
42.6184530191
 20
222.0166025726
 11
42.6077895872
 21
222.1292896710
  0
LINE
  8
Layer0$C$L0
 62
     3
 10
42.6220191731
 20
221.8994356125
 11
42.6184530191
 21
222.0166025726
  0
LINE
  8
Layer0$C$L0
 62
     3
 10
43.2106373841
 20
223.6013482085
 11
43.2690911274
 21
223.5459016810
  0
LINE
  8
Layer0$C$L0
 62
     3
 10
43.1594022510
 20
223.6759666674
 11
43.2106373841
 21
223.6013482085
  0
LINE
  8
Layer0$C$L0
 62
     3
 10
43.1173546649
 20
223.7668895133
 11
43.1594022510
 21
223.6759666674
  0
LINE
  8
Layer0$C$L0
 62
     3
 10
43.0861104903
 20
223.8706226337
 11
43.1173546649
 21
223.7668895133
  0
LINE
  8
Layer0$C$L0
 62
     3
 10
43.0668704228
 20
223.9831796245
 11
43.0861104903
 21
223.8706226337
  0
LINE
  8
Layer0$C$L0
 62
     3
 10
43.0603738470
 20
224.1002349854
 11
43.0668704228
 21
223.9831796245
  0
LINE
  8
Layer0$C$L0
 62
     3
 10
43.0668704228
 20
222.0169729634
 11
43.0603738470
 21
221.8999176025
  0
LINE
  8
Layer0$C$L0
 62
     3
 10
43.0861104903
 20
222.1295299542
 11
43.0668704228
 21
222.0169729634
  0
LINE
  8
Layer0$C$L0
 62
     3
 10
43.1173546649
 20
222.2332630746
 11
43.0861104903
 21
222.1295299542
  0
LINE
  8
Layer0$C$L0
 62
     3
 10
43.1594022510
 20
222.3241859205
 11
43.1173546649
 21
222.2332630746
  0
LINE
  8
Layer0$C$L0
 62
     3
 10
43.2106373841
 20
222.3988043794
 11
43.1594022510
 21
222.3241859205
  0
LINE
  8
Layer0$C$L0
 62
     3
 10
43.2690911274
 20
222.4542509069
 11
43.2106373841
 21
222.3988043794
  0
LINE
  8
Layer0$C$L0
 62
     3
 10
43.0666233018
 20
224.1958184331
 11
43.0602225147
 21
224.0974842853
  0
LINE
  8
Layer0$C$L0
 62
     3
 10
43.0735724377
 20
224.2939681057
 11
43.0666233018
 21
224.1958184331
  0
LINE
  8
Layer0$C$L0
 62
     3
 10
43.0810688504
 20
224.3919181626
 11
43.0735724377
 21
224.2939681057
  0
LINE
  8
Layer0$C$L0
 62
     3
 10
43.0891113836
 20
224.4896534945
 11
43.0810688504
 21
224.3919181626
  0
LINE
  8
Layer0$C$L0
 62
     3
 10
43.0976987967
 20
224.5871590248
 11
43.0891113836
 21
224.4896534945
  0
LINE
  8
Layer0$C$L0
 62
     3
 10
43.1068297649
 20
224.6844197127
 11
43.0976987967
 21
224.5871590248
  0
LINE
  8
Layer0$C$L0
 62
     3
 10
43.1165028797
 20
224.7814205551
 11
43.1068297649
 21
224.6844197127
  0
LINE
  8
Layer0$C$L0
 62
     3
 10
43.1267166491
 20
224.8781465888
 11
43.1165028797
 21
224.7814205551
  0
LINE
  8
Layer0$C$L0
 62
     3
 10
42.6273370366
 20
224.1825448501
 11
42.6220380904
 21
224.1007692335
  0
LINE
  8
Layer0$C$L0
 62
     3
 10
42.6330152337
 20
224.2641943272
 11
42.6273370366
 21
224.1825448501
  0
LINE
  8
Layer0$C$L0
 62
     3
 10
42.6390720761
 20
224.3457089562
 11
42.6330152337
 21
224.2641943272
  0
LINE
  8
Layer0$C$L0
 62
     3
 10
42.6455069177
 20
224.4270800426
 11
42.6390720761
 21
224.3457089562
  0
LINE
  8
Layer0$C$L0
 62
     3
 10
42.6523190722
 20
224.5082989073
 11
42.6455069177
 21
224.4270800426
  0
LINE
  8
Layer0$C$L0
 62
     3
 10
42.6595078130
 20
224.5893568875
 11
42.6523190722
 21
224.5082989073
  0
LINE
  8
Layer0$C$L0
 62
     3
 10
42.6670723734
 20
224.6702453374
 11
42.6595078130
 21
224.5893568875
  0
LINE
  8
Layer0$C$L0
 62
     3
 10
42.6750119465
 20
224.7509556294
 11
42.6670723734
 21
224.6702453374
  0
LINE
  8
Layer0$C$L0
 62
     3
 10
42.7286758497
 20
224.7973036112
 11
42.6748879528
 21
224.7504571521
  0
LINE
  8
Layer0$C$L0
 62
     3
 10
42.7837539697
 20
224.8355618016
 11
42.7286758497
 21
224.7973036112
  0
LINE
  8
Layer0$C$L0
 62
     3
 10
42.8398591378
 20
224.8650489174
 11
42.7837539697
 21
224.8355618016
  0
LINE
  8
Layer0$C$L0
 62
     3
 10
42.8967232714
 20
224.8856240628
 11
42.8398591378
 21
224.8650489174
  0
LINE
  8
Layer0$C$L0
 62
     3
 10
42.9540746614
 20
224.8971889254
 11
42.8967232714
 21
224.8856240628
  0
LINE
  8
Layer0$C$L0
 62
     3
 10
43.0116392705
 20
224.8996882458
 11
42.9540746614
 21
224.8971889254
  0
LINE
  8
Layer0$C$L0
 62
     3
 10
43.0691420425
 20
224.8931100816
 11
43.0116392705
 21
224.8996882458
  0
LINE
  8
Layer0$C$L0
 62
     3
 10
43.1263082168
 20
224.8774858647
 11
43.0691420425
 21
224.8931100816
  0
LINE
  8
Layer0$C$L0
 62
     3
 10
42.6390519965
 20
221.6544672513
 11
42.6454797190
 21
221.5731680581
  0
LINE
  8
Layer0$C$L0
 62
     3
 10
42.6330016015
 20
221.7359096961
 11
42.6390519965
 21
221.6544672513
  0
LINE
  8
Layer0$C$L0
 62
     3
 10
42.6273291784
 20
221.8174867215
 11
42.6330016015
 21
221.7359096961
  0
LINE
  8
Layer0$C$L0
 62
     3
 10
42.6220353309
 20
221.8991896417
 11
42.6273291784
 21
221.8174867215
  0
LINE
  8
Layer0$C$L0
 62
     3
 10
43.0735251284
 20
221.7064546842
 11
43.0810135103
 21
221.6085594667
  0
LINE
  8
Layer0$C$L0
 62
     3
 10
43.0665834037
 20
221.8045492000
 11
43.0735251284
 21
221.7064546842
  0
LINE
  8
Layer0$C$L0
 62
     3
 10
43.0601894059
 20
221.9028278997
 11
43.0665834037
 21
221.8045492000
  0
LINE
  8
Layer0$C$L0
 62
     3
 10
42.0953917356
 20
221.9535878786
 11
42.1755028801
 21
221.5670439599
  0
LINE
  8
Layer0$C$L0
 62
     3
 10
42.0409930881
 20
222.3627499169
 11
42.0953917356
 21
221.9535878786
  0
LINE
  8
Layer0$C$L0
 62
     3
 10
42.0134828460
 20
222.7856854233
 11
42.0409930881
 21
222.3627499169
  0
LINE
  8
Layer0$C$L0
 62
     3
 10
42.0134556845
 20
223.2132520119
 11
42.0134828460
 21
222.7856854233
  0
LINE
  8
Layer0$C$L0
 62
     3
 10
42.0409121908
 20
223.6362071888
 11
42.0134556845
 21
223.2132520119
  0
LINE
  8
Layer0$C$L0
 62
     3
 10
42.0952588512
 20
224.0454081430
 11
42.0409121908
 21
223.6362071888
  0
LINE
  8
Layer0$C$L0
 62
     3
 10
42.1753208811
 20
224.4320093815
 11
42.0952588512
 21
224.0454081430
  0
LINE
  8
Layer0$C$L0
 62
     3
 10
42.2793676194
 20
224.7876539382
 11
42.1753208811
 21
224.4320093815
  0
LINE
  8
Layer0$C$L0
 62
     3
 10
42.4051499399
 20
225.1046540221
 11
42.2793676194
 21
224.7876539382
  0
LINE
  8
Layer0$C$L0
 62
     3
 10
42.5499488687
 20
225.3761572005
 11
42.4051499399
 21
225.1046540221
  0
LINE
  8
Layer0$C$L0
 62
     3
 10
42.7106343596
 20
225.5962945245
 11
42.5499488687
 21
225.3761572005
  0
LINE
  8
Layer0$C$L0
 62
     3
 10
42.8837329546
 20
225.7603073953
 11
42.7106343596
 21
225.5962945245
  0
LINE
  8
Layer0$C$L0
 62
     3
 10
43.0655028676
 20
225.8646504287
 11
42.8837329546
 21
225.7603073953
  0
LINE
  8
Layer0$C$L0
 62
     3
 10
43.2520148691
 20
225.9070680932
 11
43.0655028676
 21
225.8646504287
  0
LINE
  8
Layer0$C$L0
 62
     3
 10
42.8163737895
 20
225.7625716360
 11
42.6555552609
 21
225.5288704268
  0
LINE
  8
Layer0$C$L0
 62
     3
 10
42.9896143243
 20
225.9376182279
 11
42.8163737895
 21
225.7625716360
  0
LINE
  8
Layer0$C$L0
 62
     3
 10
43.1715987431
 20
226.0502937352
 11
42.9896143243
 21
225.9376182279
  0
LINE
  8
Layer0$C$L0
 62
     3
 10
42.4340615912
 20
223.4999237061
 11
42.1951394720
 21
223.4999237061
  0
LINE
  8
Layer0$C$L0
 62
     3
 10
42.4343362494
 20
222.4999237061
 11
42.1951394720
 21
222.4999237061
  0
LINE
  8
Layer0$C$L0
 62
     3
 10
42.1117349310
 20
226.7999420166
 11
42.1117349310
 21
224.9595184326
  0
LINE
  8
Layer0$C$L0
 62
     3
 10
43.0117288275
 20
227.0999298096
 11
42.4117227240
 21
227.0999298096
  0
LINE
  8
Layer0$C$L0
 62
     3
 10
43.0117288275
 20
227.0999298096
 11
43.0117288275
 21
227.9999237061
  0
LINE
  8
Layer0$C$L0
 62
     3
 10
43.2522684085
 20
225.9071148520
 11
43.8106757008
 21
225.9396908564
  0
LINE
  8
Layer0$C$L0
 62
     3
 10
43.2690911274
 20
223.5459016810
 11
43.3325171374
 21
223.5117578630
  0
LINE
  8
Layer0$C$L0
 62
     3
 10
43.3325171374
 20
222.4883947249
 11
43.2690911274
 21
222.4542509069
  0
LINE
  8
Layer0$C$L0
 62
     3
 10
43.3584632792
 20
226.0982059099
 11
43.1715987431
 21
226.0502937352
  0
ARC
  8
Layer0$C$L0
 62
     3
 10
43.3117166205
 20
227.9999237061
 40
0.3000000119
 50
89.9999820139
 51
179.9999640278
  0
LINE
  8
Layer0$C$L0
 62
     3
 10
43.5117288275
 20
233.3590850830
 11
43.5117288275
 21
232.6958160400
  0
LINE
  8
Layer0$C$L0
 62
     3
 10
43.0117288275
 20
236.6999359131
 11
43.0117288275
 21
228.2999420166
  0
LINE
  8
Layer0$C$L0
 62
     3
 10
50.0117288275
 20
233.5999298096
 11
43.0117288275
 21
233.5999298096
  0
LINE
  8
Layer0$C$L0
 62
     3
 10
48.3485513373
 20
236.9999542236
 11
43.2644754095
 21
236.9999542236
  0
LINE
  8
Layer0$C$L0
 62
     3
 10
50.0117288275
 20
231.3999481201
 11
43.0117288275
 21
231.3999481201
  0
LINE
  8
Layer0$C$L0
 62
     3
 10
48.3485513373
 20
227.9999237061
 11
43.2644754095
 21
227.9999237061
  0
LINE
  8
Layer0$C$L0
 62
     3
 10
53.1986942842
 20
221.2881654048
 11
53.3512230210
 21
221.4012191552
  0
LINE
  8
Layer0$C$L0
 62
     3
 10
52.7271662746
 20
221.4012191552
 11
52.8796950115
 21
221.2881654048
  0
LINE
  8
Layer0$C$L0
 62
     3
 10
52.2062783881
 20
218.9999237061
 11
52.2062783881
 21
219.1999359131
  0
LINE
  8
Layer0$C$L0
 62
     3
 10
53.0391946478
 20
221.2499237061
 11
53.1986942842
 21
221.2881654048
  0
LINE
  8
Layer0$C$L0
 62
     3
 10
52.8796950115
 20
221.2881654048
 11
53.0391946478
 21
221.2499237061
  0
LINE
  8
Layer0$C$L0
 62
     3
 10
52.9253335638
 20
219.1999359131
 11
52.9253335638
 21
218.9999237061
  0
LINE
  8
Layer0$C$L0
 62
     3
 10
51.1681619330
 20
217.7999420166
 11
51.1681619330
 21
218.8999481201
  0
ARC
  8
Layer0$C$L0
 62
     3
 10
46.1855264349
 20
218.5999298096
 40
0.3000000119
 50
89.9999820139
 51
179.9999640278
  0
LINE
  8
Layer0$C$L0
 62
     3
 10
45.8855386420
 20
217.7999420166
 11
45.8855386420
 21
218.5999298096
  0
LINE
  8
Layer0$C$L0
 62
     3
 10
43.5460048990
 20
219.9194541854
 11
43.7307145256
 21
220.0026526513
  0
LINE
  8
Layer0$C$L0
 62
     3
 10
43.3582262590
 20
219.9016581035
 11
43.5460048990
 21
219.9194541854
  0
LINE
  8
Layer0$C$L0
 62
     3
 10
44.2662024132
 20
221.1435848478
 11
44.3698859648
 21
221.4731070818
  0
LINE
  8
Layer0$C$L0
 62
     3
 10
44.3631324887
 20
220.9343004065
 11
44.4778120048
 21
221.2921476398
  0
LINE
  8
Layer0$C$L0
 62
     3
 10
44.1434283843
 20
220.8501753785
 11
44.2662024132
 21
221.1435848478
  0
LINE
  8
Layer0$C$L0
 62
     3
 10
44.0039522940
 20
220.5985865903
 11
44.1434283843
 21
220.8501753785
  0
LINE
  8
Layer0$C$L0
 62
     3
 10
44.2280352752
 20
220.6203090488
 11
44.3631324887
 21
220.9343004065
  0
LINE
  8
Layer0$C$L0
 62
     3
 10
44.0753886543
 20
220.3568400127
 11
44.2280352752
 21
220.6203090488
  0
LINE
  8
Layer0$C$L0
 62
     3
 10
43.9084335126
 20
220.1494870892
 11
44.0753886543
 21
220.3568400127
  0
LINE
  8
Layer0$C$L0
 62
     3
 10
43.7307145256
 20
220.0026526513
 11
43.9084335126
 21
220.1494870892
  0
ARC
  8
Layer0$C$L0
 62
     3
 10
45.2954202338
 20
218.0999298096
 40
0.3000000119
 50
179.9999640278
 51
270.0000006832
  0
ARC
  8
Layer0$C$L0
 62
     3
 10
37.5117288275
 20
222.9999237061
 40
5.0000000000
 50
336.9260807760
 51
340.7952668276
  0
LINE
  8
Layer0$C$L0
 62
     3
 10
42.6670198080
 20
221.3302164668
 11
42.6749495966
 21
221.2495766740
  0
LINE
  8
Layer0$C$L0
 62
     3
 10
43.1067466415
 20
221.3162202740
 11
43.1164092748
 21
221.2192727452
  0
ARC
  8
Layer0$C$L0
 62
     3
 10
42.4117227240
 20
218.0999298096
 40
0.3000000119
 50
179.9999640278
 51
270.0000006832
  0
LINE
  8
Layer0$C$L0
 62
     3
 10
43.0693352618
 20
221.1067747936
 11
43.1265279991
 21
221.1224393455
  0
LINE
  8
Layer0$C$L0
 62
     3
 10
43.0118046696
 20
221.1001650668
 11
43.0693352618
 21
221.1067747936
  0
LINE
  8
Layer0$C$L0
 62
     3
 10
42.9542113881
 20
221.1026417789
 11
43.0118046696
 21
221.1001650668
  0
LINE
  8
Layer0$C$L0
 62
     3
 10
42.8968308828
 20
221.1141930839
 11
42.9542113881
 21
221.1026417789
  0
LINE
  8
Layer0$C$L0
 62
     3
 10
42.8399376013
 20
221.1347637326
 11
42.8968308828
 21
221.1141930839
  0
LINE
  8
Layer0$C$L0
 62
     3
 10
42.7838036610
 20
221.1642553368
 11
42.8399376013
 21
221.1347637326
  0
LINE
  8
Layer0$C$L0
 62
     3
 10
42.7286975474
 20
221.2025268398
 11
42.7838036610
 21
221.1642553368
  0
LINE
  8
Layer0$C$L0
 62
     3
 10
42.6748828299
 20
221.2493951911
 11
42.7286975474
 21
221.2025268398
  0
LINE
  8
Layer0$C$L0
 62
     3
 10
43.1164092748
 20
221.2192727452
 11
43.1266119577
 21
221.1225995800
  0
LINE
  8
Layer0$C$L0
 62
     3
 10
43.0658668454
 20
220.1350401027
 11
43.2523842276
 21
220.0927559313
  0
LINE
  8
Layer0$C$L0
 62
     3
 10
42.8840836838
 20
220.2392530342
 11
43.0658668454
 21
220.1350401027
  0
LINE
  8
Layer0$C$L0
 62
     3
 10
42.7109642586
 20
220.4031420068
 11
42.8840836838
 21
220.2392530342
  0
LINE
  8
Layer0$C$L0
 62
     3
 10
42.5502508061
 20
220.6231643142
 11
42.7109642586
 21
220.4031420068
  0
LINE
  8
Layer0$C$L0
 62
     3
 10
42.4054173890
 20
220.8945638441
 11
42.5502508061
 21
220.6231643142
  0
LINE
  8
Layer0$C$L0
 62
     3
 10
42.2795947990
 20
221.2114738881
 11
42.4054173890
 21
220.8945638441
  0
LINE
  8
Layer0$C$L0
 62
     3
 10
42.9893895946
 20
220.0623878280
 11
43.1713653909
 21
219.9496422397
  0
LINE
  8
Layer0$C$L0
 62
     3
 10
42.8161624534
 20
220.2375011328
 11
42.9893895946
 21
220.0623878280
  0
LINE
  8
Layer0$C$L0
 62
     3
 10
42.6553618055
 20
220.4712642702
 11
42.8161624534
 21
220.2375011328
  0
LINE
  8
Layer0$C$L0
 62
     3
 10
42.1117349310
 20
221.0403289795
 11
42.1117349310
 21
218.0999298096
  0
LINE
  8
Layer0$C$L0
 62
     3
 10
42.6594643693
 20
221.4110340346
 11
42.6670198080
 21
221.3302164668
  0
LINE
  8
Layer0$C$L0
 62
     3
 10
42.6522840847
 20
221.4920207726
 11
42.6594643693
 21
221.4110340346
  0
LINE
  8
Layer0$C$L0
 62
     3
 10
43.0976255467
 20
221.4134272285
 11
43.1067466415
 21
221.3162202740
  0
LINE
  8
Layer0$C$L0
 62
     3
 10
43.0890473957
 20
221.5108786312
 11
43.0976255467
 21
221.4134272285
  0
LINE
  8
Layer0$C$L0
 62
     3
 10
43.8107422438
 20
220.0601697480
 11
43.2522740199
 21
220.0927493070
  0
LINE
  8
Layer0$C$L0
 62
     3
 10
45.5817056342
 20
218.0999298096
 11
42.4344278021
 21
218.0999298096
  0
LINE
  8
Layer0$C$L0
 62
     3
 10
43.1713653909
 20
219.9496422397
 11
43.3582262590
 21
219.9016581035
  0
LINE
  8
Layer0$C$L0
 62
     3
 10
48.7117105170
 20
218.8999481201
 11
46.1855264349
 21
218.8999481201
  0
LINE
  8
Layer0$C$L0
 62
     3
 10
44.9954324408
 20
227.9999237061
 11
44.9954324408
 21
218.0999298096
  0
LINE
  8
Layer0$C$L0
 62
     3
 10
42.1755028801
 20
221.5670439599
 11
42.2795947990
 21
221.2114738881
  0
LINE
  8
Layer0$C$L0
 62
     3
 10
42.6454797190
 20
221.5731680581
 11
42.6522840847
 21
221.4920207726
  0
LINE
  8
Layer0$C$L0
 62
     3
 10
43.0810135103
 20
221.6085594667
 11
43.0890473957
 21
221.5108786312
  0
LINE
  8
Layer0$C$L0
 62
     3
 10
44.3698859648
 20
221.4731070818
 11
44.4524620043
 21
221.8323316350
  0
LINE
  8
Layer0$C$L0
 62
     3
 10
44.4778120048
 20
221.2921476398
 11
44.5696390278
 21
221.6862531854
  0
LINE
  8
Layer0$C$L0
 62
     3
 10
49.9117227240
 20
218.8999481201
 11
49.9117227240
 21
227.0999298096
  0
LINE
  8
Layer0$C$L0
 62
     3
 10
50.2117105170
 20
218.8999481201
 11
50.2117105170
 21
227.0999298096
  0
LINE
  8
Layer0$C$L0
 62
     3
 10
51.5111489935
 20
218.8999481201
 11
51.5111489935
 21
227.0999298096
  0
LINE
  8
Layer0$C$L0
 62
     3
 10
48.7117105170
 20
218.8999481201
 11
48.7117105170
 21
228.2999420166
  0
LINE
  8
Layer0$C$L0
 62
     3
 10
51.2303262396
 20
219.2682342529
 11
51.2303262396
 21
226.7641754150
  0
LINE
  8
Layer0$C$L0
 62
     3
 10
51.5113780860
 20
221.4541341807
 11
51.6272055971
 21
221.6265616206
  0
LINE
  8
Layer0$C$L0
 62
     3
 10
53.3512230210
 20
221.4012191552
 11
53.4901146207
 21
221.5841439659
  0
LINE
  8
Layer0$C$L0
 62
     3
 10
52.5882746749
 20
221.5841439659
 11
52.7271662746
 21
221.4012191552
  0
LINE
  8
Layer0$C$L0
 62
     3
 10
52.1073099582
 20
184.8478040069
 11
51.0287461206
 21
185.3738547044
  0
ARC
  8
Layer0$C$L0
 62
     3
 10
53.0061288519
 20
184.4094543457
 40
1.2999992371
 50
63.9999653533
 51
150.6991628281
  0
ARC
  8
Layer0$C$L0
 62
     3
 10
53.0061288519
 20
184.4094543457
 40
1.0000000000
 50
63.9999653533
 51
154.0000020087
  0
ARC
  8
Layer0$C$L0
 62
     3
 10
51.0050607367
 20
178.7098083496
 40
1.0000000000
 50
244.0000013255
 51
334.0000004148
  0
ARC
  8
Layer0$C$L0
 62
     3
 10
51.0050607367
 20
178.7098083496
 40
1.2999992371
 50
244.0000013255
 51
331.8762350547
  0
LINE
  8
Layer0$C$L0
 62
     3
 10
52.9823779000
 20
177.7454018345
 11
51.9038140624
 21
178.2714525320
  0
ARC
  8
Layer0$C$L0
 62
     3
 10
50.3758798285
 20
179.0166931152
 40
1.2999992371
 50
157.3007865478
 51
243.9999840226
  0
ARC
  8
Layer0$C$L0
 62
     3
 10
50.3758798285
 20
179.0166931152
 40
1.0000000000
 50
154.0000020087
 51
243.9999840226
  0
LINE
  8
Layer0$C$L0
 62
     3
 10
49.4770865714
 20
179.4550465343
 11
48.3985227338
 21
179.9810972318
  0
LINE
  8
Layer0$C$L0
 62
     3
 10
52.1073099582
 20
184.8478040069
 11
49.4770865714
 21
179.4550465343
  0
LINE
  8
Layer0$C$L0
 62
     3
 10
51.0287461206
 20
185.3738547044
 11
48.3985227338
 21
179.9810972318
  0
LINE
  8
Layer0$C$L0
 62
     3
 10
50.4351362112
 20
177.5413886395
 11
49.8059968301
 21
177.8482403980
  0
LINE
  8
Layer0$C$L0
 62
     3
 10
50.5666488856
 20
177.8110295989
 11
49.9375095045
 21
178.1178813574
  0
ARC
  8
Layer0$C$L0
 62
     3
 10
44.8746286078
 20
186.8808898926
 40
1.2999992371
 50
108.3069653671
 51
139.6839255084
  0
ARC
  8
Layer0$C$L0
 62
     3
 10
45.3078561468
 20
188.6999816895
 40
0.5000000000
 50
89.9999820139
 51
154.0000020087
  0
ARC
  8
Layer0$C$L0
 62
     3
 10
49.9833017035
 20
182.5459289551
 40
8.0000000000
 50
157.5832831718
 51
168.3160238675
  0
ARC
  8
Layer0$C$L0
 62
     3
 10
43.4221444769
 20
183.9028015137
 40
1.2999992371
 50
168.3160238675
 51
199.6926561598
  0
ARC
  8
Layer0$C$L0
 62
     3
 10
42.6117196722
 20
182.5513610840
 40
0.5000000000
 50
179.9999640278
 51
243.9999840226
  0
LINE
  8
Layer0$C$L0
 62
     3
 10
42.3925302624
 20
182.1019725496
 11
43.0116854810
 21
181.7999903922
  0
LINE
  8
Layer0$C$L0
 62
     3
 10
42.1117196722
 20
183.2875061035
 11
42.1117196722
 21
182.5513610840
  0
LINE
  8
Layer0$C$L0
 62
     3
 10
42.5877960116
 20
185.5966815750
 11
43.1130342733
 21
185.3405057750
  0
LINE
  8
Layer0$C$L0
 62
     3
 10
43.0117135687
 20
185.3899230957
 11
43.0117135687
 21
186.4999694824
  0
LINE
  8
Layer0$C$L0
 62
     3
 10
42.6117196722
 20
182.4877014160
 11
42.6117196722
 21
181.9950866699
  0
ARC
  8
Layer0$C$L0
 62
     3
 10
43.5117135687
 20
186.4999694824
 40
0.5000000000
 50
113.8655372381
 51
179.9999640278
  0
LINE
  8
Layer0$C$L0
 62
     3
 10
43.0261671335
 20
186.4954756300
 11
43.5514053951
 21
186.2392998300
  0
ARC
  8
Layer0$C$L0
 62
     3
 10
49.9833017035
 20
182.5459594727
 40
8.0000000000
 50
139.6839255084
 51
150.4167208456
  0
LINE
  8
Layer0$C$L0
 62
     3
 10
44.8584622633
 20
188.9191637261
 11
42.1117229681
 21
183.2875132230
  0
LINE
  8
Layer0$C$L0
 62
     3
 10
45.8854954934
 20
189.1999841710
 11
42.6117021488
 21
182.4877126539
  0
LINE
  8
Layer0$C$L0
 62
     3
 10
45.3078561468
 20
189.1999816895
 11
51.1681466742
 21
189.1999816895
  0
LINE
  8
Layer0$C$L0
 62
     3
 10
45.8855233832
 20
188.8999938965
 11
50.8779245062
 21
188.8999938965
  0
LINE
  8
Layer0$C$L0
 62
     3
 10
51.8117318793
 20
175.4999694824
 11
51.8117318793
 21
172.4999694824
  0
LINE
  8
Layer0$C$L0
 62
     3
 10
51.8117261524
 20
172.4999898949
 11
51.6117302560
 21
172.2999939984
  0
LINE
  8
Layer0$C$L0
 62
     3
 10
51.8117261524
 20
164.4999814021
 11
51.6117302560
 21
164.6999772986
  0
ARC
  8
Layer0$C$L0
 62
     3
 10
51.0050607367
 20
158.2901611328
 40
1.0000000000
 50
25.9999961701
 51
115.9999986745
  0
LINE
  8
Layer0$C$L0
 62
     3
 10
51.8117477316
 20
161.4999782174
 11
51.6117410455
 21
161.2999715313
  0
ARC
  8
Layer0$C$L0
 62
     3
 10
51.0050607367
 20
158.2901611328
 40
1.2999992371
 50
28.1237615302
 51
115.9999986745
  0
LINE
  8
Layer0$C$L0
 62
     3
 10
52.9823812656
 20
159.2545620270
 11
51.9038311425
 21
158.7285180185
  0
LINE
  8
Layer0$C$L0
 62
     3
 10
49.4771036514
 20
157.5449240163
 11
48.3985535283
 21
157.0188800078
  0
ARC
  8
Layer0$C$L0
 62
     3
 10
50.3758798285
 20
157.9833068848
 40
1.2999992371
 50
115.9999986745
 51
202.6991415079
  0
ARC
  8
Layer0$C$L0
 62
     3
 10
50.3758798285
 20
157.9833068848
 40
1.0000000000
 50
115.9999986745
 51
205.9999806884
  0
LINE
  8
Layer0$C$L0
 62
     3
 10
50.4351466022
 20
159.4585956255
 11
49.8060072211
 21
159.1517438670
  0
LINE
  8
Layer0$C$L0
 62
     3
 10
50.5666659656
 20
159.1889409516
 11
49.9375265845
 21
158.8820891931
  0
LINE
  8
Layer0$C$L0
 62
     3
 10
48.6117196722
 20
162.5000000000
 11
48.6117196722
 21
174.4999694824
  0
LINE
  8
Layer0$C$L0
 62
     3
 10
51.8117318793
 20
161.5000000000
 11
51.8117318793
 21
164.5000000000
  0
LINE
  8
Layer0$C$L0
 62
     3
 10
51.6117196722
 20
161.2999877930
 11
51.6117196722
 21
164.6999816895
  0
LINE
  8
Layer0$C$L0
 62
     3
 10
43.8117318793
 20
174.5999755859
 11
43.8117318793
 21
171.8999938965
  0
LINE
  8
Layer0$C$L0
 62
     3
 10
43.6117196722
 20
171.4999694824
 11
46.1117196722
 21
171.4999694824
  0
LINE
  8
Layer0$C$L0
 62
     3
 10
43.6117196722
 20
165.5000000000
 11
46.1117196722
 21
165.5000000000
  0
LINE
  8
Layer0$C$L0
 62
     3
 10
46.1117196722
 20
165.5000000000
 11
46.1117196722
 21
171.4999694824
  0
LINE
  8
Layer0$C$L0
 62
     3
 10
43.6117196722
 20
165.5000000000
 11
43.6117196722
 21
171.4999694824
  0
LINE
  8
Layer0$C$L0
 62
     3
 10
43.0117135687
 20
165.0999755859
 11
43.8117318793
 21
165.0999755859
  0
LINE
  8
Layer0$C$L0
 62
     3
 10
43.0117135687
 20
174.5999755859
 11
43.8117318793
 21
174.5999755859
  0
LINE
  8
Layer0$C$L0
 62
     3
 10
43.0117135687
 20
171.8999938965
 11
43.8117318793
 21
171.8999938965
  0
ARC
  8
Layer0$C$L0
 62
     3
 10
43.4221444769
 20
153.0971984863
 40
1.2999992371
 50
160.3072718959
 51
191.6839041881
  0
LINE
  8
Layer0$C$L0
 62
     3
 10
42.1117196722
 20
153.7124633789
 11
42.1117196722
 21
154.4486083984
  0
LINE
  8
Layer0$C$L0
 62
     3
 10
42.3925473425
 20
154.8979980009
 11
43.0117162756
 21
155.1999868474
  0
LINE
  8
Layer0$C$L0
 62
     3
 10
42.6117196722
 20
154.5122680664
 11
42.6117196722
 21
155.0049133301
  0
ARC
  8
Layer0$C$L0
 62
     3
 10
42.6117196722
 20
154.4486083984
 40
0.5000000000
 50
115.9999986745
 51
179.9999640278
  0
LINE
  8
Layer0$C$L0
 62
     3
 10
43.0117135687
 20
162.3999938965
 11
43.8117318793
 21
162.3999938965
  0
LINE
  8
Layer0$C$L0
 62
     3
 10
46.6117196722
 20
162.5000000000
 11
46.6117196722
 21
174.4999694824
  0
LINE
  8
Layer0$C$L0
 62
     3
 10
43.8117318793
 20
162.3999938965
 11
43.8117318793
 21
165.0999755859
  0
LINE
  8
Layer0$C$L0
 62
     3
 10
46.6117196722
 20
162.5000000000
 11
48.6117196722
 21
162.5000000000
  0
LINE
  8
Layer0$C$L0
 62
     3
 10
46.6117196722
 20
174.4999694824
 11
48.6117196722
 21
174.4999694824
  0
LINE
  8
Layer0$C$L0
 62
     3
 10
43.0117135687
 20
155.1999816895
 11
43.0117135687
 21
181.7999877930
  0
LINE
  8
Layer0$C$L0
 62
     3
 10
51.6117196722
 20
175.6999816895
 11
51.6117196722
 21
172.2999877930
  0
LINE
  8
Layer0$C$L0
 62
     3
 10
51.8117369420
 20
175.4999822900
 11
51.6117410455
 21
175.6999781865
  0
LINE
  8
Layer0$C$L0
 62
     3
 10
82.5117440863
 20
217.7999420166
 11
42.4117227240
 21
217.7999420166
  0
LINE
  8
Layer0$C$L0
 62
     3
 10
60.8308915930
 20
184.4871359673
 11
51.1681423474
 21
189.1999733562
  0
LINE
  8
Layer0$C$L0
 62
     3
 10
54.6173070663
 20
184.2911306920
 11
51.4610530491
 21
177.8198505253
  0
LINE
  8
Layer0$C$L0
 62
     3
 10
54.5340648782
 20
183.6641966266
 11
51.9038414914
 21
178.2714391540
  0
LINE
  8
Layer0$C$L0
 62
     3
 10
54.5340578738
 20
153.3357536886
 11
51.9038311425
 21
158.7285180185
  0
LINE
  8
Layer0$C$L0
 62
     3
 10
54.5340374492
 20
183.6642100047
 11
51.9038140624
 21
178.2714525320
  0
LINE
  8
Layer0$C$L0
 62
     3
 10
60.5154673543
 20
184.3071946653
 11
51.3431215178
 21
188.7808463459
  0
LINE
  8
Layer0$C$L0
 62
     3
 10
54.2051271905
 20
185.2710161409
 11
53.5759878094
 21
185.5778678994
  0
LINE
  8
Layer0$C$L0
 62
     3
 10
55.6126012868
 20
183.1381593072
 11
52.9823779000
 21
177.7454018345
  0
LINE
  8
Layer0$C$L0
 62
     3
 10
55.6126079969
 20
153.8617976971
 11
52.9823812656
 21
159.2545620270
  0
LINE
  8
Layer0$C$L0
 62
     3
 10
51.8117318793
 20
175.4999694824
 11
60.5117135687
 21
175.4999694824
  0
LINE
  8
Layer0$C$L0
 62
     3
 10
51.6117196722
 20
175.6999816895
 11
60.7117257758
 21
175.6999816895
  0
LINE
  8
Layer0$C$L0
 62
     3
 10
51.6117196722
 20
172.2999877930
 11
60.7117257758
 21
172.2999877930
  0
LINE
  8
Layer0$C$L0
 62
     3
 10
51.8117318793
 20
172.4999694824
 11
60.5117135687
 21
172.4999694824
  0
LINE
  8
Layer0$C$L0
 62
     3
 10
51.6117196722
 20
164.6999816895
 11
60.7117257758
 21
164.6999816895
  0
LINE
  8
Layer0$C$L0
 62
     3
 10
51.8117318793
 20
164.5000000000
 11
60.5117135687
 21
164.5000000000
  0
LINE
  8
Layer0$C$L0
 62
     3
 10
51.8117318793
 20
161.5000000000
 11
60.5117135687
 21
161.5000000000
  0
LINE
  8
Layer0$C$L0
 62
     3
 10
51.6117196722
 20
161.2999877930
 11
60.7117257758
 21
161.2999877930
  0
LINE
  8
Layer0$C$L0
 62
     3
 10
54.0736145161
 20
185.0013751815
 11
53.4444751350
 21
185.3082269400
  0
LINE
  8
Layer0$C$L0
 62
     3
 10
52.2062783881
 20
238.1999359131
 11
54.5911660834
 21
238.1999359131
  0
LINE
  8
Layer0$C$L0
 62
     3
 10
63.0117288275
 20
237.8999481201
 11
49.9117227240
 21
237.8999481201
  0
LINE
  8
Layer0$C$L0
 62
     3
 10
58.0117288275
 20
236.6999359131
 11
43.0117288275
 21
236.6999359131
  0
LINE
  8
Layer0$C$L0
 62
     3
 10
52.2062783881
 20
226.7999420166
 11
54.5911660834
 21
226.7999420166
  0
LINE
  8
Layer0$C$L0
 62
     3
 10
52.2062783881
 20
219.1999359131
 11
54.5911660834
 21
219.1999359131
  0
LINE
  8
Layer0$C$L0
 62
     3
 10
51.5111489935
 20
218.9999237061
 11
55.7045694037
 21
218.9999237061
  0
LINE
  8
Layer0$C$L0
 62
     3
 10
61.1117349310
 20
218.8999481201
 11
49.9117227240
 21
218.8999481201
  0
LINE
  8
Layer0$C$L0
 62
     3
 10
63.0117288275
 20
227.0999298096
 11
49.9117227240
 21
227.0999298096
  0
LINE
  8
Layer0$C$L0
 62
     3
 10
58.0117288275
 20
228.2999420166
 11
43.0117288275
 21
228.2999420166
  0
LINE
  8
Layer0$C$L0
 62
     3
 10
62.1117349310
 20
218.0999298096
 11
46.2671304388
 21
218.0999298096
  0
ARC
  8
Layer0$C$L0
 62
     3
 10
65.3078866644
 20
148.2999877930
 40
0.5000000000
 50
205.9999979913
 51
270.0000179861
  0
ARC
  8
Layer0$C$L0
 62
     3
 10
63.5117440863
 20
150.5000000000
 40
0.5000000000
 50
179.9999640278
 51
246.1344454590
  0
LINE
  8
Layer0$C$L0
 62
     3
 10
63.0117440863
 20
151.6100463867
 11
63.0117440863
 21
150.5000000000
  0
LINE
  8
Layer0$C$L0
 62
     3
 10
63.0262288637
 20
150.5045007525
 11
63.5514534108
 21
150.7606698634
  0
ARC
  8
Layer0$C$L0
 62
     3
 10
69.9833322211
 20
154.4540100098
 40
8.0000000000
 50
209.5832791544
 51
220.3160744916
  0
LINE
  8
Layer0$C$L0
 62
     3
 10
62.5878577418
 20
151.4032948074
 11
63.1130822889
 21
151.6594639184
  0
ARC
  8
Layer0$C$L0
 62
     3
 10
64.8746591254
 20
150.1190795898
 40
1.2999992371
 50
220.3160744916
 51
251.6930346329
  0
LINE
  8
Layer0$C$L0
 62
     3
 10
55.6788278265
 20
150.0000000000
 11
63.0117135687
 21
150.0000000000
  0
LINE
  8
Layer0$C$L0
 62
     3
 10
65.8855539008
 20
148.1000061035
 11
70.8779550238
 21
148.1000061035
  0
LINE
  8
Layer0$C$L0
 62
     3
 10
65.3078866644
 20
147.7999877930
 11
71.1681771918
 21
147.7999877930
  0
LINE
  8
Layer0$C$L0
 62
     3
 10
52.1073303827
 20
152.1521596864
 11
51.0287802596
 21
151.6261156779
  0
ARC
  8
Layer0$C$L0
 62
     3
 10
53.0061288519
 20
152.5905456543
 40
1.2999992371
 50
209.3008371719
 51
296.0000346467
  0
ARC
  8
Layer0$C$L0
 62
     3
 10
53.0061288519
 20
152.5905456543
 40
1.0000000000
 50
205.9999979913
 51
296.0000346467
  0
ARC
  8
Layer0$C$L0
 62
     3
 10
44.8746286078
 20
150.1190795898
 40
1.2999992371
 50
220.3160744916
 51
251.6930346329
  0
ARC
  8
Layer0$C$L0
 62
     3
 10
45.3078561468
 20
148.2999877930
 40
0.5000000000
 50
205.9999979913
 51
270.0000179861
  0
LINE
  8
Layer0$C$L0
 62
     3
 10
42.5878272242
 20
151.4032948074
 11
43.1130517714
 21
151.6594639184
  0
LINE
  8
Layer0$C$L0
 62
     3
 10
43.0117135687
 20
151.6100463867
 11
43.0117135687
 21
150.5000000000
  0
ARC
  8
Layer0$C$L0
 62
     3
 10
49.9833017035
 20
154.4540100098
 40
8.0000000000
 50
209.5832791544
 51
220.3160744916
  0
ARC
  8
Layer0$C$L0
 62
     3
 10
43.5117135687
 20
150.5000000000
 40
0.5000000000
 50
179.9999640278
 51
246.1344454590
  0
LINE
  8
Layer0$C$L0
 62
     3
 10
43.0261983461
 20
150.5045007525
 11
43.5514228932
 21
150.7606698634
  0
LINE
  8
Layer0$C$L0
 62
     3
 10
45.3078561468
 20
147.7999877930
 11
51.1681466742
 21
147.7999877930
  0
LINE
  8
Layer0$C$L0
 62
     3
 10
45.8855233832
 20
148.1000061035
 11
50.8779245062
 21
148.1000061035
  0
LINE
  8
Layer0$C$L0
 62
     3
 10
60.8308983030
 20
152.5128210370
 11
51.1681764865
 21
147.7999970261
  0
LINE
  8
Layer0$C$L0
 62
     3
 10
54.2051409260
 20
151.7289612669
 11
53.5760015449
 21
151.4221095084
  0
LINE
  8
Layer0$C$L0
 62
     3
 10
54.0736349407
 20
151.9985885118
 11
53.4444955596
 21
151.6917367533
  0
ARC
  8
Layer0$C$L0
 62
     3
 10
53.6352792425
 20
152.8973999023
 40
1.0000000000
 50
296.0000346467
 51
385.9999961701
  0
LINE
  8
Layer0$C$L0
 62
     3
 10
60.5154810898
 20
152.6927827426
 11
51.3983910097
 21
148.2460810932
  0
LINE
  8
Layer0$C$L0
 62
     3
 10
44.8584826879
 20
148.0807999672
 11
42.1117333592
 21
153.7124710420
  0
LINE
  8
Layer0$C$L0
 62
     3
 10
45.8855229434
 20
147.7999999259
 11
42.6117329434
 21
154.5122645856
  0
ARC
  8
Layer0$C$L0
 62
     3
 10
49.9833017035
 20
154.4540405273
 40
8.0000000000
 50
191.6839761325
 51
202.4167168282
  0
LINE
  8
Layer0$C$L0
 62
     3
 10
52.1073303827
 20
152.1521596864
 11
49.4771036514
 21
157.5449240163
  0
LINE
  8
Layer0$C$L0
 62
     3
 10
51.0287802596
 20
151.6261156779
 11
48.3985535283
 21
157.0188800078
  0
LINE
  8
Layer0$C$L0
 62
     3
 10
63.0117135687
 20
150.0000000000
 11
63.0117135687
 21
151.6100230934
  0
ARC
  8
Layer0$C$L0
 62
     3
 10
53.6352792425
 20
152.8973999023
 40
1.2999992371
 50
296.0000346467
 51
383.8762376401
  0
ARC
  8
Layer0$C$L0
 62
     3
 10
60.6117196722
 20
152.9622192383
 40
0.5000000000
 50
296.0000346467
 51
360.0000000000
  0
LINE
  8
Layer0$C$L0
 62
     3
 10
65.8855534610
 20
147.7999999259
 11
62.6117634610
 21
154.5122645856
  0
LINE
  8
Layer0$C$L0
 62
     3
 10
64.8585132055
 20
148.0807999672
 11
62.1117638768
 21
153.7124710420
  0
ARC
  8
Layer0$C$L0
 62
     3
 10
69.9833322211
 20
154.4540405273
 40
8.0000000000
 50
191.6839761325
 51
202.4167168282
  0
LINE
  8
Layer0$C$L0
  6
CENTER
 62
     3
 10
39.7350717230
 20
232.4999237061
 11
127.3895828507
 21
232.4999237061
  0
LINE
  8
Layer0$C$L0
  6
CENTER
 62
     3
 10
39.7350259467
 20
168.4999847412
 11
128.0451064865
 21
168.4999847412
  0
LINE
  8
Layer0$C$L0
 10
0.0000000000
 20
0.0000000000
 11
210.0000000000
 21
0.0000000000
  0
LINE
  8
Layer0$C$L0
 62
     3
 10
64.9954324408
 20
236.9999542236
 11
64.9954324408
 21
246.8999481201
  0
LINE
  8
Layer0$C$L0
 62
     3
 10
68.7117105170
 20
246.0999298096
 11
68.7117105170
 21
236.6999359131
  0
LINE
  8
Layer0$C$L0
 62
     3
 10
83.0117288275
 20
246.8999481201
 11
83.0117288275
 21
236.6499481201
  0
LINE
  8
Layer0$C$L0
 62
     3
 10
51.2303262396
 20
245.7316436768
 11
51.2303262396
 21
238.2357025146
  0
LINE
  8
Layer0$C$L0
 62
     3
 10
49.9117227240
 20
246.0999298096
 11
49.9117227240
 21
237.8999481201
  0
LINE
  8
Layer0$C$L0
 62
     3
 10
50.2117105170
 20
246.0999298096
 11
50.2117105170
 21
237.8999481201
  0
LINE
  8
Layer0$C$L0
 62
     3
 10
55.7045694037
 20
246.0999298096
 11
55.7045694037
 21
237.8999481201
  0
LINE
  8
Layer0$C$L0
 62
     3
 10
55.8257241888
 20
246.0999298096
 11
55.8257241888
 21
237.8999481201
  0
LINE
  8
Layer0$C$L0
 62
     3
 10
57.0203347845
 20
246.0999298096
 11
57.0203347845
 21
237.8999481201
  0
LINE
  8
Layer0$C$L0
 62
     3
 10
61.1117349310
 20
247.1999359131
 11
61.1117349310
 21
237.8999481201
  0
LINE
  8
Layer0$C$L0
 62
     3
 10
60.6117349310
 20
245.7192230225
 11
60.6117349310
 21
238.3009185791
  0
LINE
  8
Layer0$C$L0
 62
     3
 10
51.5111489935
 20
246.0999298096
 11
51.5111489935
 21
237.8999481201
  0
LINE
  8
Layer0$C$L0
 62
     3
 10
48.7117105170
 20
246.0999298096
 11
48.7117105170
 21
236.6999359131
  0
LINE
  8
Layer0$C$L0
 62
     3
 10
44.9954324408
 20
236.9999542236
 11
44.9954324408
 21
246.8999481201
  0
LINE
  8
Layer0$C$L0
 62
     3
 10
111.5117440863
 20
246.0000000000
 11
111.5117440863
 21
219.0000000000
  0
LINE
  8
Layer0$C$L0
 62
     3
 10
112.3117471381
 20
247.0000000000
 11
112.3117471381
 21
218.0000000000
  0
LINE
  8
Layer0$C$L0
 62
     3
 10
117.0117440863
 20
247.0000000000
 11
117.0117440863
 21
218.0000000000
  0
LINE
  8
Layer0$C$L0
 62
     3
 10
124.5117440863
 20
246.1999969482
 11
124.5117440863
 21
218.7999877930
  0
LINE
  8
Layer0$C$L0
 62
     3
 10
124.2117410345
 20
246.5000000000
 11
124.2117410345
 21
218.5000000000
  0
LINE
  8
Layer0$C$L0
 62
     3
 10
117.5117440863
 20
246.5000000000
 11
117.5117440863
 21
218.5000000000
  0
LINE
  8
Layer0$C$L0
 62
     3
 10
102.2117257758
 20
246.4999694824
 11
102.2117257758
 21
218.4999694824
  0
LINE
  8
Layer0$C$L0
 62
     3
 10
104.7117257758
 20
246.9999694824
 11
104.7117257758
 21
217.9999694824
  0
LINE
  8
Layer0$C$L0
 62
     3
 10
109.5117288275
 20
246.9999694824
 11
109.5117288275
 21
217.9999694824
  0
LINE
  8
Layer0$C$L0
 62
     3
 10
97.0117288275
 20
246.7999725342
 11
97.0117288275
 21
218.1999816895
  0
LINE
  8
Layer0$C$L0
 62
     3
 10
83.0117288275
 20
247.2999725342
 11
83.0117288275
 21
236.6999664307
  0
LINE
  8
Layer0$C$L0
 62
     3
 10
83.0117440863
 20
247.1999816895
 11
83.0117440863
 21
236.6000061035
  0
LINE
  8
Layer0$C$L0
 10
0.0000000000
 20
297.0000000000
 11
0.0000000000
 21
0.0000000000
  0
LINE
  8
Layer0$C$L0
 62
     3
 10
42.1117349310
 20
243.9595489502
 11
42.1117349310
 21
246.8999481201
  0
LINE
  8
Layer0$C$L0
 62
     3
 10
42.7109915091
 20
244.5967359229
 11
42.5502757477
 21
244.3767136155
  0
LINE
  8
Layer0$C$L0
 62
     3
 10
42.8161843849
 20
244.7623767969
 11
42.6553806839
 21
244.5286136595
  0
LINE
  8
Layer0$C$L0
 62
     3
 10
44.2280720264
 20
244.3795688808
 11
44.0754248964
 21
244.6430379170
  0
LINE
  8
Layer0$C$L0
 62
     3
 10
55.1433816595
 20
245.5262908936
 11
55.1433816595
 21
238.5430450439
  0
LINE
  8
Layer0$C$L0
 62
     3
 10
62.1117349310
 20
243.9595489502
 11
62.1117349310
 21
246.8999481201
  0
LINE
  8
Layer0$C$L0
 62
     3
 10
62.7109915091
 20
244.5967359229
 11
62.5502757477
 21
244.3767136155
  0
LINE
  8
Layer0$C$L0
 62
     3
 10
62.8161843849
 20
244.7623767969
 11
62.6553806839
 21
244.5286136595
  0
LINE
  8
Layer0$C$L0
 62
     3
 10
64.2280720264
 20
244.3795688808
 11
64.0754248964
 21
244.6430379170
  0
LINE
  8
Layer0$C$L0
 10
210.0000000000
 20
0.0000000000
 11
210.0000000000
 21
297.0000000000
  0
ENDSEC
  0
EOF
