  0
SECTION
  2
HEADER
  9
$ACADVER
  1
AC1004
  9
$ANGBASE
 50
0.0000000000
  9
$ANGDIR
 70
     0
  9
$ATTDIA
 70
     0
  9
$ATTMODE
 70
     1
  9
$ATTREQ
 70
     1
  9
$AUNITS
 70
     0
  9
$AUPREC
 70
     0
  9
$AXISMODE
 70
     0
  9
$AXISUNIT
 10
0.0000000000
 20
0.0000000000
  9
$BLIPMODE
 70
     1
  9
$CECOLOR
 62
   256
  9
$CELTYPE
  6
BYLAYER
  9
$CHAMFERA
 40
0.0000000000
  9
$CHAMFERB
 40
0.0000000000
  9
$CLAYER
  8
0
  9
$COORDS
 70
     0
  9
$DIMALT
 70
     0
  9
$DIMALTD
 70
     2
  9
$DIMALTF
 40
25.4000000000
  9
$DIMAPOST
  1

  9
$DIMASO
 70
     1
  9
$DIMASZ
 40
1.9727878447
  9
$DIMBLK
  1

  9
$DIMBLK1
  1

  9
$DIMBLK2
  1

  9
$DIMCEN
 40
9.0000000000E-02
  9
$DIMDLE
 40
0.0000000000
  9
$DIMDLI
 40
0.3800000000
  9
$DIMEXE
 40
3.8099999428
  9
$DIMEXO
 40
2.5399999619
  9
$DIMLFAC
 40
1.0000000000
  9
$DIMLIM
 70
     0
  9
$DIMPOST
  1

  9
$DIMRND
 40
0.0000000000
  9
$DIMSCALE
 40
1.0000000000
  9
$DIMSE1
 70
     0
  9
$DIMSE2
 70
     0
  9
$DIMSHO
 70
     0
  9
$DIMTAD
 70
     0
  9
$DIMTIH
 70
     0
  9
$DIMTM
 40
0.0000000000
  9
$DIMTOH
 70
     1
  9
$DIMTOL
 70
     0
  9
$DIMTP
 40
0.0000000000
  9
$DIMTSZ
 40
0.0000000000
  9
$DIMTXT
 40
2.9999940395
  9
$DIMZIN
 70
     0
  9
$DRAGMODE
 70
     1
  9
$ELEVATION
 40
0.0000000000
  9
$EXTMAX
 10
213.1750000000
 20
300.1750000000
 30
0.0000000000
  9
$EXTMIN
 10
-3.1750000000
 20
-3.1750000000
 30
0.0000000000
  9
$FASTZOOM
 70
     1
  9
$FILLETRAD
 40
6.2500000000E-02
  9
$FILLMODE
 70
     1
  9
$GRIDMODE
 70
     0
  9
$GRIDUNIT
 10
0.0000000000
 20
0.0000000000
  9
$INSBASE
 10
0.0000000000
 20
0.0000000000
 30
0.0000000000
  9
$LIMCHECK
 70
     0
  9
$LIMMAX
 10
213.1750000000
 20
300.1750000000
  9
$LIMMIN
 10
-3.1750000000
 20
-3.1750000000
  9
$LTSCALE
 40
1.0000000000
  9
$LUNITS
 70
     2
  9
$LUPREC
 70
     3
  9
$MEASUREMENT
 70
     0
  9
$MENU
  1
ACAD
  9
$MIRRTEXT
 70
     0
  9
$ORTHOMODE
 70
     0
  9
$OSMODE
 70
     0
  9
$PDMODE
 70
     0
  9
$PDSIZE
 40
0.0000000000
  9
$PLINEWID
 40
0.0000000000
  9
$PROXYGRAPHICS
 70
     0
  9
$QTEXTMODE
 70
     0
  9
$REGENMODE
 70
     1
  9
$SKETCHINC
 40
0.1000000000
  9
$SKPOLY
 70
     0
  9
$SNAPANG
 50
0.0000000000
  9
$SNAPBASE
 10
0.0000000000
 20
0.0000000000
  9
$SNAPISOPAIR
 70
     0
  9
$SNAPMODE
 70
     0
  9
$SNAPSTYLE
 70
     0
  9
$SNAPUNIT
 10
1.0000000000
 20
1.0000000000
  9
$SPLFRAME
 70
     0
  9
$SPLINESEGS
 70
     8
  9
$TDCREATE
 40
2453360.3683333380
  9
$TDINDWG
 40
0.0000000000
  9
$TDUPDATE
 40
2453360.3683333380
  9
$TDUSRTIMER
 40
0.0000000000
  9
$TEXTSIZE
 40
2.9999940395
  9
$TEXTSTYLE
  7
STANDARD
  9
$THICKNESS
 40
0.0000000000
  9
$TRACEWID
 40
5.0000000000E-02
  9
$USERI1
 70
     0
  9
$USERI2
 70
     0
  9
$USERI3
 70
     0
  9
$USERI4
 70
     0
  9
$USERI5
 70
     0
  9
$USERR1
 40
0.0000000000
  9
$USERR2
 40
0.0000000000
  9
$USERR3
 40
0.0000000000
  9
$USERR4
 40
0.0000000000
  9
$USERR5
 40
0.0000000000
  9
$USRTIMER
 70
     1
  9
$VIEWCTR
 10
105.0000000000
 20
148.5000000000
  9
$VIEWDIR
 10
0.0000000000
 20
0.0000000000
 30
1.0000000000
  9
$VIEWSIZE
 40
303.3500000000
  0
ENDSEC
  0
SECTION
  2
TABLES
  0
TABLE
  2
LTYPE
 70
     2
  0
LTYPE
  2
SOLID
  3
Solid
 70
    64
 72
    65
 73
     0
 40
0.0000000000
  0
LTYPE
  2
CENTER
  3
Center
 70
    64
 72
    65
 73
     4
 40
9.1000067592
 49
6.5000119209
 49
-0.7999984026
 49
0.9999980330
 49
-0.7999984026
  0
ENDTAB
  0
TABLE
  2
LAYER
 70
     1
  0
LAYER
  2
Layer0$C$L0
 70
     0
  6
SOLID
 62
   192
  0
ENDTAB
  0
TABLE
  2
STYLE
 70
     1
  0
STYLE
  2
STANDARD
  3
txt
  4

 40
0.0000000000
 41
1.0000000000
 42
2.9999940395
 50
0.0000000000
 70
     0
 71
     0
  0
ENDTAB
  0
ENDSEC
  0
SECTION
  2
BLOCKS
  0
ENDSEC
  0
SECTION
  2
ENTITIES
  0
LINE
  8
Layer0$C$L0
 62
     3
 10
60.2116647406
 20
155.2002910774
 11
60.2116647406
 21
181.8003120119
  0
LINE
  8
Layer0$C$L0
 62
     3
 10
78.0308799925
 20
152.5131414716
 11
68.3681581759
 21
147.8003174607
  0
LINE
  8
Layer0$C$L0
 62
     3
 10
77.7154627793
 20
152.6931031772
 11
68.5983726992
 21
148.2464015278
  0
LINE
  8
Layer0$C$L0
 62
     3
 10
72.8788095160
 20
187.0002899170
 11
80.2116952582
 21
187.0002899170
  0
LINE
  8
Layer0$C$L0
 62
     3
 10
72.8788095160
 20
150.0003204346
 11
80.2116952582
 21
150.0003204346
  0
LINE
  8
Layer0$C$L0
 62
     3
 10
69.0117135687
 20
175.5002899170
 11
77.7116952582
 21
175.5002899170
  0
LINE
  8
Layer0$C$L0
 62
     3
 10
68.8117013617
 20
175.7003021240
 11
77.9117074652
 21
175.7003021240
  0
LINE
  8
Layer0$C$L0
 62
     3
 10
68.8117013617
 20
172.3003082276
 11
77.9117074652
 21
172.3003082276
  0
LINE
  8
Layer0$C$L0
 62
     3
 10
69.0117135687
 20
172.5002899170
 11
77.7116952582
 21
172.5002899170
  0
LINE
  8
Layer0$C$L0
 62
     3
 10
68.8117013617
 20
164.7003021240
 11
77.9117074652
 21
164.7003021240
  0
LINE
  8
Layer0$C$L0
 62
     3
 10
69.0117135687
 20
164.5003204346
 11
77.7116952582
 21
164.5003204346
  0
LINE
  8
Layer0$C$L0
 62
     3
 10
69.0117135687
 20
161.5003204346
 11
77.7116952582
 21
161.5003204346
  0
LINE
  8
Layer0$C$L0
 62
     3
 10
68.8117013617
 20
161.3003082276
 11
77.9117074652
 21
161.3003082276
  0
LINE
  8
Layer0$C$L0
 62
     3
 10
78.0308732824
 20
184.4874564019
 11
68.3681240369
 21
189.2002937908
  0
LINE
  8
Layer0$C$L0
 62
     3
 10
77.7154490438
 20
184.3075150998
 11
68.5431032073
 21
188.7811667805
  0
LINE
  8
Layer0$C$L0
 62
     3
 10
67.6351282917
 20
159.4589160601
 11
67.0059889106
 21
159.1520643016
  0
LINE
  8
Layer0$C$L0
 62
     3
 10
67.7666476551
 20
159.1892613862
 11
67.1375082740
 21
158.8824096277
  0
LINE
  8
Layer0$C$L0
 62
     3
 10
69.3073120722
 20
152.1524801210
 11
66.6770853409
 21
157.5452444509
  0
LINE
  8
Layer0$C$L0
 62
     3
 10
68.2287619491
 20
151.6264361125
 11
65.5985352178
 21
157.0192004424
  0
LINE
  8
Layer0$C$L0
 62
     3
 10
66.6770853409
 20
157.5452444509
 11
65.5985352178
 21
157.0192004424
  0
ARC
  8
Layer0$C$L0
 62
     3
 10
67.5758615180
 20
157.9836273194
 40
1.0000000000
 50
115.9999986745
 51
205.9999806884
  0
ARC
  8
Layer0$C$L0
 62
     3
 10
67.5758615180
 20
157.9836273194
 40
1.2999992371
 50
115.9999986745
 51
202.6991415079
  0
LINE
  8
Layer0$C$L0
 62
     3
 10
71.4051226155
 20
151.7292817015
 11
70.7759832344
 21
151.4224299430
  0
LINE
  8
Layer0$C$L0
 62
     3
 10
71.2736166301
 20
151.9989089464
 11
70.6444772491
 21
151.6920571879
  0
LINE
  8
Layer0$C$L0
 62
     3
 10
71.7340395633
 20
153.3360741232
 11
69.1038128319
 21
158.7288384531
  0
LINE
  8
Layer0$C$L0
 62
     3
 10
72.8125896863
 20
153.8621181317
 11
70.1823629550
 21
159.2548824616
  0
LINE
  8
Layer0$C$L0
 62
     3
 10
69.3073120722
 20
152.1524801210
 11
68.2287619491
 21
151.6264361125
  0
ARC
  8
Layer0$C$L0
 62
     3
 10
70.2061105414
 20
152.5908660889
 40
1.2999992371
 50
209.3008371719
 51
296.0000346467
  0
ARC
  8
Layer0$C$L0
 62
     3
 10
70.2061105414
 20
152.5908660889
 40
1.0000000000
 50
205.9999979913
 51
296.0000346467
  0
LINE
  8
Layer0$C$L0
 62
     3
 10
70.1823629550
 20
159.2548824616
 11
69.1038128319
 21
158.7288384531
  0
ARC
  8
Layer0$C$L0
 62
     3
 10
68.2050424262
 20
158.2904815674
 40
1.2999992371
 50
28.1237615302
 51
115.9999986745
  0
ARC
  8
Layer0$C$L0
 62
     3
 10
68.2050424262
 20
158.2904815674
 40
1.0000000000
 50
25.9999961701
 51
115.9999986745
  0
LINE
  8
Layer0$C$L0
 62
     3
 10
72.8125896863
 20
153.8621181317
 11
71.7340395633
 21
153.3360741232
  0
ARC
  8
Layer0$C$L0
 62
     3
 10
70.8352609320
 20
152.8977203369
 40
1.2999992371
 50
296.0000346467
 51
383.8762376401
  0
ARC
  8
Layer0$C$L0
 62
     3
 10
70.8352609320
 20
152.8977203369
 40
1.0000000000
 50
296.0000346467
 51
385.9999961701
  0
LINE
  8
Layer0$C$L0
 62
     3
 10
69.0117078419
 20
164.5003018367
 11
68.8117119454
 21
164.7002977332
  0
LINE
  8
Layer0$C$L0
 62
     3
 10
69.0117135687
 20
161.5003204346
 11
69.0117135687
 21
164.5003204346
  0
LINE
  8
Layer0$C$L0
 62
     3
 10
68.8117013617
 20
161.3003082276
 11
68.8117013617
 21
164.7003021240
  0
LINE
  8
Layer0$C$L0
 62
     3
 10
69.0117294211
 20
161.5002986520
 11
68.8117227350
 21
161.3002919659
  0
LINE
  8
Layer0$C$L0
 62
     3
 10
67.6351179007
 20
177.5417090741
 11
67.0059785196
 21
177.8485608326
  0
LINE
  8
Layer0$C$L0
 62
     3
 10
67.7666305750
 20
177.8113500335
 11
67.1374911940
 21
178.1182017920
  0
LINE
  8
Layer0$C$L0
 62
     3
 10
69.3072916476
 20
184.8481244415
 11
66.6770682609
 21
179.4553669689
  0
LINE
  8
Layer0$C$L0
 62
     3
 10
68.2287278101
 20
185.3741751390
 11
65.5985044233
 21
179.9814176664
  0
LINE
  8
Layer0$C$L0
 62
     3
 10
66.6770682609
 20
179.4553669689
 11
65.5985044233
 21
179.9814176664
  0
ARC
  8
Layer0$C$L0
 62
     3
 10
67.5758615180
 20
179.0170135498
 40
1.0000000000
 50
154.0000020087
 51
243.9999840226
  0
ARC
  8
Layer0$C$L0
 62
     3
 10
67.5758615180
 20
179.0170135498
 40
1.2999992371
 50
157.3007865478
 51
243.9999840226
  0
LINE
  8
Layer0$C$L0
 62
     3
 10
71.8172887558
 20
184.2914511266
 11
68.6610347386
 21
177.8201709599
  0
LINE
  8
Layer0$C$L0
 62
     3
 10
71.7340465677
 20
183.6645170612
 11
69.1038231809
 21
178.2717595886
  0
LINE
  8
Layer0$C$L0
 62
     3
 10
71.7340191387
 20
183.6645304393
 11
69.1037957519
 21
178.2717729666
  0
LINE
  8
Layer0$C$L0
 62
     3
 10
72.8125829763
 20
183.1384797418
 11
70.1823595895
 21
177.7457222691
  0
ARC
  8
Layer0$C$L0
 62
     3
 10
68.2050424262
 20
178.7101287842
 40
1.2999992371
 50
244.0000013255
 51
331.8762350547
  0
LINE
  8
Layer0$C$L0
 62
     3
 10
69.0117186315
 20
175.5003027246
 11
68.8117227350
 21
175.7002986211
  0
LINE
  8
Layer0$C$L0
 62
     3
 10
69.0117078419
 20
172.5003103295
 11
68.8117119454
 21
172.3003144330
  0
LINE
  8
Layer0$C$L0
 62
     3
 10
68.8117013617
 20
175.7003021240
 11
68.8117013617
 21
172.3003082276
  0
LINE
  8
Layer0$C$L0
 62
     3
 10
69.0117135687
 20
175.5002899170
 11
69.0117135687
 21
172.5002899170
  0
LINE
  8
Layer0$C$L0
 62
     3
 10
70.1823595895
 20
177.7457222691
 11
69.1037957519
 21
178.2717729666
  0
ARC
  8
Layer0$C$L0
 62
     3
 10
68.2050424262
 20
178.7101287842
 40
1.0000000000
 50
244.0000013255
 51
334.0000004148
  0
LINE
  8
Layer0$C$L0
 62
     3
 10
71.4051088800
 20
185.2713365755
 11
70.7759694989
 21
185.5781883340
  0
LINE
  8
Layer0$C$L0
 62
     3
 10
71.2735962056
 20
185.0016956161
 11
70.6444568245
 21
185.3085473746
  0
LINE
  8
Layer0$C$L0
 62
     3
 10
69.3072916476
 20
184.8481244415
 11
68.2287278101
 21
185.3741751390
  0
ARC
  8
Layer0$C$L0
 62
     3
 10
70.2061105414
 20
184.4097747803
 40
1.2999992371
 50
63.9999653533
 51
150.6991628281
  0
ARC
  8
Layer0$C$L0
 62
     3
 10
70.2061105414
 20
184.4097747803
 40
1.0000000000
 50
63.9999653533
 51
154.0000020087
  0
LINE
  8
Layer0$C$L0
 62
     3
 10
72.8125829763
 20
183.1384797418
 11
71.7340191387
 21
183.6645304393
  0
ARC
  8
Layer0$C$L0
 62
     3
 10
70.8352609320
 20
184.1028900147
 40
1.2999992371
 50
336.1237657750
 51
423.9999653533
  0
ARC
  8
Layer0$C$L0
 62
     3
 10
70.8352609320
 20
184.1028900147
 40
1.0000000000
 50
334.0000004148
 51
423.9999653533
  0
ARC
  8
Layer0$C$L0
 62
     3
 10
77.8117013617
 20
152.9625396729
 40
0.5000000000
 50
296.0000346467
 51
360.0000000000
  0
LINE
  8
Layer0$C$L0
 62
     3
 10
79.7119784884
 20
155.5903582345
 11
78.1299001712
 21
154.8187271328
  0
LINE
  8
Layer0$C$L0
 62
     3
 10
78.0117135687
 20
153.2230072022
 11
78.0117135687
 21
154.5736236573
  0
LINE
  8
Layer0$C$L0
 62
     3
 10
78.3117013617
 20
152.9625396729
 11
78.3117013617
 21
154.5736236573
  0
LINE
  8
Layer0$C$L0
 62
     3
 10
79.9308733244
 20
155.3633533771
 11
78.3116835462
 21
154.5736218077
  0
LINE
  8
Layer0$C$L0
 62
     3
 10
77.7117235515
 20
161.5002986520
 11
77.9117194480
 21
161.3003027555
  0
LINE
  8
Layer0$C$L0
 62
     3
 10
77.9117074652
 20
161.3003082276
 11
77.9117074652
 21
164.7003021240
  0
LINE
  8
Layer0$C$L0
 62
     3
 10
77.9117086584
 20
164.7003085228
 11
77.7117127619
 21
164.5003126263
  0
LINE
  8
Layer0$C$L0
 62
     3
 10
77.7116952582
 20
161.5003204346
 11
77.7116952582
 21
164.5003204346
  0
LINE
  8
Layer0$C$L0
 62
     3
 10
78.3117013617
 20
184.0380706787
 11
78.3117013617
 21
182.4269866944
  0
LINE
  8
Layer0$C$L0
 62
     3
 10
78.0117135687
 20
183.7775726319
 11
78.0117135687
 21
182.4269866944
  0
LINE
  8
Layer0$C$L0
 62
     3
 10
79.7119717784
 20
181.4102396390
 11
78.1298934612
 21
182.1818707407
  0
LINE
  8
Layer0$C$L0
 62
     3
 10
77.7117127619
 20
175.5003027246
 11
77.9117086584
 21
175.7002986211
  0
LINE
  8
Layer0$C$L0
 62
     3
 10
77.7116952582
 20
175.5002899170
 11
77.7116952582
 21
172.5002899170
  0
LINE
  8
Layer0$C$L0
 62
     3
 10
77.9117074652
 20
175.7003021240
 11
77.9117074652
 21
172.3003082276
  0
LINE
  8
Layer0$C$L0
 62
     3
 10
77.9117194480
 20
172.3002928538
 11
77.7117235515
 21
172.5002887503
  0
LINE
  8
Layer0$C$L0
 62
     3
 10
79.9308733034
 20
181.6372582109
 11
78.3116835252
 21
182.4269897803
  0
ARC
  8
Layer0$C$L0
 62
     3
 10
77.8117013617
 20
184.0380706787
 40
0.5000000000
 50
0.0000000000
 51
63.9999653533
  0
LINE
  8
Layer0$C$L0
 62
     3
 10
72.3432870550
 20
246.5266571045
 11
72.3432870550
 21
239.5434112549
  0
LINE
  8
Layer0$C$L0
 62
     3
 10
72.9044747992
 20
247.1002960205
 11
72.9044747992
 21
238.9003143311
  0
LINE
  8
Layer0$C$L0
 62
     3
 10
73.0256295843
 20
247.1002960205
 11
73.0256295843
 21
238.9003143311
  0
LINE
  8
Layer0$C$L0
 62
     3
 10
74.2202401800
 20
247.1002960205
 11
74.2202401800
 21
238.9003143311
  0
LINE
  8
Layer0$C$L0
 62
     3
 10
78.3116403265
 20
248.2003021240
 11
78.3116403265
 21
238.9003143311
  0
LINE
  8
Layer0$C$L0
 62
     3
 10
77.8116403265
 20
246.7195892334
 11
77.8116403265
 21
239.3012847901
  0
LINE
  8
Layer0$C$L0
 62
     3
 10
68.4302316351
 20
246.7320098877
 11
68.4302316351
 21
239.2360687256
  0
LINE
  8
Layer0$C$L0
 62
     3
 10
67.1116281195
 20
247.1002960205
 11
67.1116281195
 21
238.9003143311
  0
LINE
  8
Layer0$C$L0
 62
     3
 10
67.4116159125
 20
247.1002960205
 11
67.4116159125
 21
238.9003143311
  0
LINE
  8
Layer0$C$L0
 62
     3
 10
68.7110543890
 20
247.1002960205
 11
68.7110543890
 21
238.9003143311
  0
LINE
  8
Layer0$C$L0
 62
     3
 10
80.2116342230
 20
238.9003143311
 11
67.1116281195
 21
238.9003143311
  0
LINE
  8
Layer0$C$L0
 62
     3
 10
78.3116403265
 20
219.9003143311
 11
67.1116281195
 21
219.9003143311
  0
LINE
  8
Layer0$C$L0
 62
     3
 10
80.2116342230
 20
228.1002960205
 11
67.1116281195
 21
228.1002960205
  0
LINE
  8
Layer0$C$L0
 62
     3
 10
79.7960458441
 20
219.1002960205
 11
63.4670358343
 21
219.1002960205
  0
LINE
  8
Layer0$C$L0
 62
     3
 10
67.1116281195
 20
219.9003143311
 11
67.1116281195
 21
228.1002960205
  0
LINE
  8
Layer0$C$L0
 62
     3
 10
67.4116159125
 20
219.9003143311
 11
67.4116159125
 21
228.1002960205
  0
LINE
  8
Layer0$C$L0
 62
     3
 10
72.8787179633
 20
228.1002960205
 11
72.8787179633
 21
229.3003082276
  0
LINE
  8
Layer0$C$L0
 62
     3
 10
68.3680673285
 20
228.1002960205
 11
68.3680673285
 21
229.3003082276
  0
LINE
  8
Layer0$C$L0
 62
     3
 10
69.4061837836
 20
227.8003082276
 11
71.7910714789
 21
227.8003082276
  0
LINE
  8
Layer0$C$L0
 62
     3
 10
71.0720163031
 20
228.0002899170
 11
72.4924569769
 21
228.0002899170
  0
LINE
  8
Layer0$C$L0
 62
     3
 10
69.4061837836
 20
220.2003021240
 11
71.7910714789
 21
220.2003021240
  0
LINE
  8
Layer0$C$L0
 62
     3
 10
68.7110543890
 20
220.0002899170
 11
72.9044747992
 21
220.0002899170
  0
LINE
  8
Layer0$C$L0
 62
     3
 10
70.9034721930
 20
223.1252899170
 11
70.9687038857
 21
223.4595101769
  0
LINE
  8
Layer0$C$L0
 62
     3
 10
70.7014555603
 20
223.0052311651
 11
70.7895896410
 21
223.2752838135
  0
LINE
  8
Layer0$C$L0
 62
     3
 10
69.0091397366
 20
223.0986476909
 11
69.0694242483
 21
223.3826071754
  0
LINE
  8
Layer0$C$L0
 62
     3
 10
69.5094962010
 20
223.4595101769
 11
69.5747278937
 21
223.1252899170
  0
LINE
  8
Layer0$C$L0
 62
     3
 10
69.6886104457
 20
223.2752838135
 11
69.7767445264
 21
223.0052311651
  0
LINE
  8
Layer0$C$L0
 62
     3
 10
68.7111878709
 20
223.1065359232
 11
68.7576704371
 21
223.3158324604
  0
LINE
  8
Layer0$C$L0
 62
     3
 10
68.4302316351
 20
220.2686004639
 11
68.4302316351
 21
227.7645416260
  0
LINE
  8
Layer0$C$L0
 62
     3
 10
68.7110543890
 20
219.9003143311
 11
68.7110543890
 21
228.1002960205
  0
LINE
  8
Layer0$C$L0
 62
     3
 10
68.3680673285
 20
218.8003082276
 11
68.3680673285
 21
219.9003143311
  0
LINE
  8
Layer0$C$L0
 62
     3
 10
68.7112834815
 20
222.4545003916
 11
68.8271109926
 21
222.6269278315
  0
LINE
  8
Layer0$C$L0
 62
     3
 10
68.8271109926
 20
222.6269278315
 11
68.9274839291
 21
222.8439954769
  0
LINE
  8
Layer0$C$L0
 62
     3
 10
68.9274839291
 20
222.8439954769
 11
69.0091397366
 21
223.0986476909
  0
LINE
  8
Layer0$C$L0
 62
     3
 10
71.0720163031
 20
220.0002899170
 11
71.0720163031
 21
220.2003021240
  0
LINE
  8
Layer0$C$L0
 62
     3
 10
70.1252389593
 20
220.2003021240
 11
70.1252389593
 21
220.0002899170
  0
LINE
  8
Layer0$C$L0
 62
     3
 10
69.9270716701
 20
222.4015853661
 11
70.0796004070
 21
222.2885316157
  0
LINE
  8
Layer0$C$L0
 62
     3
 10
70.0796004070
 20
222.2885316157
 11
70.2391000433
 21
222.2502899170
  0
LINE
  8
Layer0$C$L0
 62
     3
 10
70.2391000433
 20
222.2502899170
 11
70.3985996797
 21
222.2885316157
  0
LINE
  8
Layer0$C$L0
 62
     3
 10
70.3985996797
 20
222.2885316157
 11
70.5511284166
 21
222.4015853661
  0
LINE
  8
Layer0$C$L0
 62
     3
 10
70.5511284166
 20
222.4015853661
 11
70.6900200162
 21
222.5845101769
  0
LINE
  8
Layer0$C$L0
 62
     3
 10
70.6900200162
 20
222.5845101769
 11
70.8092042494
 21
222.8293113559
  0
LINE
  8
Layer0$C$L0
 62
     3
 10
69.8898043126
 20
222.7888223916
 11
70.0216947221
 21
222.6377241460
  0
LINE
  8
Layer0$C$L0
 62
     3
 10
70.0216947221
 20
222.6377241460
 11
70.1653055088
 21
222.5600821738
  0
LINE
  8
Layer0$C$L0
 62
     3
 10
70.1653055088
 20
222.5600821738
 11
70.3128945779
 21
222.5600821738
  0
LINE
  8
Layer0$C$L0
 62
     3
 10
70.3128945779
 20
222.5600821738
 11
70.4565053645
 21
222.6377241460
  0
LINE
  8
Layer0$C$L0
 62
     3
 10
70.4565053645
 20
222.6377241460
 11
70.5883957741
 21
222.7888223916
  0
LINE
  8
Layer0$C$L0
 62
     3
 10
69.4061837836
 20
220.0002899170
 11
69.4061837836
 21
220.2003021240
  0
LINE
  8
Layer0$C$L0
 62
     3
 10
69.6689958373
 20
222.8293113559
 11
69.7881800704
 21
222.5845101769
  0
LINE
  8
Layer0$C$L0
 62
     3
 10
69.7881800704
 20
222.5845101769
 11
69.9270716701
 21
222.4015853661
  0
LINE
  8
Layer0$C$L0
 62
     3
 10
69.5747278937
 20
223.1252899170
 11
69.6689958373
 21
222.8293113559
  0
LINE
  8
Layer0$C$L0
 62
     3
 10
70.8092042494
 20
222.8293113559
 11
70.9034721930
 21
223.1252899170
  0
LINE
  8
Layer0$C$L0
 62
     3
 10
69.7767445264
 20
223.0052311651
 11
69.8898043126
 21
222.7888223916
  0
LINE
  8
Layer0$C$L0
 62
     3
 10
70.5883957741
 20
222.7888223916
 11
70.7014555603
 21
223.0052311651
  0
LINE
  8
Layer0$C$L0
 62
     3
 10
68.7110543890
 20
228.0002899170
 11
70.1252389593
 21
228.0002899170
  0
LINE
  8
Layer0$C$L0
 62
     3
 10
69.0694242483
 20
223.3826071754
 11
69.1063779570
 21
223.6866440196
  0
LINE
  8
Layer0$C$L0
 62
     3
 10
69.1063779570
 20
223.6866440196
 11
69.1187997074
 21
224.0008757115
  0
LINE
  8
Layer0$C$L0
 62
     3
 10
69.1187997074
 20
224.0008757115
 11
69.1062857388
 21
224.3150883625
  0
LINE
  8
Layer0$C$L0
 62
     3
 10
69.1062857388
 20
224.3150883625
 11
69.0692428094
 21
224.6190687030
  0
LINE
  8
Layer0$C$L0
 62
     3
 10
69.0692428094
 20
224.6190687030
 11
69.0088749744
 21
224.9029360577
  0
LINE
  8
Layer0$C$L0
 62
     3
 10
69.0088749744
 20
224.9029360577
 11
68.9271444497
 21
225.1574635102
  0
LINE
  8
Layer0$C$L0
 62
     3
 10
68.9271444497
 20
225.1574635102
 11
68.8267078304
 21
225.3743778180
  0
LINE
  8
Layer0$C$L0
 62
     3
 10
68.8267078304
 20
225.3743778180
 11
68.7108297412
 21
225.5466283281
  0
LINE
  8
Layer0$C$L0
 62
     3
 10
68.7576704371
 20
223.3158324604
 11
68.7914619534
 21
223.5374321040
  0
LINE
  8
Layer0$C$L0
 62
     3
 10
68.7914619534
 20
223.5374321040
 11
68.8119550181
 21
223.7673516057
  0
LINE
  8
Layer0$C$L0
 62
     3
 10
68.8119550181
 20
223.7673516057
 11
68.8187812689
 21
224.0014581680
  0
LINE
  8
Layer0$C$L0
 62
     3
 10
68.8187812689
 20
224.0014581680
 11
68.8118180041
 21
224.2355437310
  0
LINE
  8
Layer0$C$L0
 62
     3
 10
68.8118180041
 20
224.2355437310
 11
68.7911903881
 21
224.4654006123
  0
LINE
  8
Layer0$C$L0
 62
     3
 10
68.7911903881
 20
224.4654006123
 11
68.7572692020
 21
224.6868971400
  0
LINE
  8
Layer0$C$L0
 62
     3
 10
68.7572692020
 20
224.6868971400
 11
68.7106641782
 21
224.8960519193
  0
LINE
  8
Layer0$C$L0
 62
     3
 10
71.0720163031
 20
228.0002899170
 11
71.0720163031
 21
227.8003082276
  0
LINE
  8
Layer0$C$L0
 62
     3
 10
70.1252389593
 20
227.8003082276
 11
70.1252389593
 21
228.0002899170
  0
LINE
  8
Layer0$C$L0
 62
     3
 10
70.2391000433
 20
225.7502899170
 11
70.0796004070
 21
225.7120482183
  0
LINE
  8
Layer0$C$L0
 62
     3
 10
70.0796004070
 20
225.7120482183
 11
69.9270716701
 21
225.5989944679
  0
LINE
  8
Layer0$C$L0
 62
     3
 10
70.9687038857
 20
223.4595101769
 11
71.0020483895
 21
223.8173651063
  0
LINE
  8
Layer0$C$L0
 62
     3
 10
71.0020483895
 20
223.8173651063
 11
71.0020483895
 21
224.1832147277
  0
LINE
  8
Layer0$C$L0
 62
     3
 10
71.0020483895
 20
224.1832147277
 11
70.9687038857
 21
224.5410696572
  0
LINE
  8
Layer0$C$L0
 62
     3
 10
70.9687038857
 20
224.5410696572
 11
70.9034721930
 21
224.8752899170
  0
LINE
  8
Layer0$C$L0
 62
     3
 10
70.9034721930
 20
224.8752899170
 11
70.8092042494
 21
225.1712684781
  0
LINE
  8
Layer0$C$L0
 62
     3
 10
70.8092042494
 20
225.1712684781
 11
70.6900200162
 21
225.4160696572
  0
LINE
  8
Layer0$C$L0
 62
     3
 10
70.6900200162
 20
225.4160696572
 11
70.5511284166
 21
225.5989944679
  0
LINE
  8
Layer0$C$L0
 62
     3
 10
70.5511284166
 20
225.5989944679
 11
70.3985996797
 21
225.7120482183
  0
LINE
  8
Layer0$C$L0
 62
     3
 10
70.3985996797
 20
225.7120482183
 11
70.2391000433
 21
225.7502899170
  0
LINE
  8
Layer0$C$L0
 62
     3
 10
70.2391000433
 20
225.4503021240
 11
70.0925089187
 21
225.4112168573
  0
LINE
  8
Layer0$C$L0
 62
     3
 10
70.0925089187
 20
225.4112168573
 11
69.9538205596
 21
225.2960681541
  0
LINE
  8
Layer0$C$L0
 62
     3
 10
70.7895896410
 20
223.2752838135
 11
70.8480466849
 21
223.5844217286
  0
LINE
  8
Layer0$C$L0
 62
     3
 10
70.8480466849
 20
223.5844217286
 11
70.8736752578
 21
223.9159792053
  0
LINE
  8
Layer0$C$L0
 62
     3
 10
70.8736752578
 20
223.9159792053
 11
70.8650937167
 21
224.2520818944
  0
LINE
  8
Layer0$C$L0
 62
     3
 10
70.8650937167
 20
224.2520818944
 11
70.8227646945
 21
224.5746104127
  0
LINE
  8
Layer0$C$L0
 62
     3
 10
70.8227646945
 20
224.5746104127
 11
70.7489701600
 21
224.8661771645
  0
LINE
  8
Layer0$C$L0
 62
     3
 10
70.7489701600
 20
224.8661771645
 11
70.6476883954
 21
225.1110637107
  0
LINE
  8
Layer0$C$L0
 62
     3
 10
70.6476883954
 20
225.1110637107
 11
70.5243795271
 21
225.2960681541
  0
LINE
  8
Layer0$C$L0
 62
     3
 10
70.5243795271
 20
225.2960681541
 11
70.3856911680
 21
225.4112168573
  0
LINE
  8
Layer0$C$L0
 62
     3
 10
70.3856911680
 20
225.4112168573
 11
70.2391000433
 21
225.4503021240
  0
LINE
  8
Layer0$C$L0
 62
     3
 10
69.4061837836
 20
228.0002899170
 11
69.4061837836
 21
227.8003082276
  0
LINE
  8
Layer0$C$L0
 62
     3
 10
69.7881800704
 20
225.4160696572
 11
69.6689958373
 21
225.1712684781
  0
LINE
  8
Layer0$C$L0
 62
     3
 10
69.6689958373
 20
225.1712684781
 11
69.5747278937
 21
224.8752899170
  0
LINE
  8
Layer0$C$L0
 62
     3
 10
69.5747278937
 20
224.8752899170
 11
69.5094962010
 21
224.5410696572
  0
LINE
  8
Layer0$C$L0
 62
     3
 10
69.5094962010
 20
224.5410696572
 11
69.4761516972
 21
224.1832147277
  0
LINE
  8
Layer0$C$L0
 62
     3
 10
69.4761516972
 20
224.1832147277
 11
69.4761516972
 21
223.8173651063
  0
LINE
  8
Layer0$C$L0
 62
     3
 10
69.4761516972
 20
223.8173651063
 11
69.5094962010
 21
223.4595101769
  0
LINE
  8
Layer0$C$L0
 62
     3
 10
69.8305116912
 20
225.1110637107
 11
69.7292299267
 21
224.8661771645
  0
LINE
  8
Layer0$C$L0
 62
     3
 10
69.7292299267
 20
224.8661771645
 11
69.6554353921
 21
224.5746104127
  0
LINE
  8
Layer0$C$L0
 62
     3
 10
69.6554353921
 20
224.5746104127
 11
69.6131063700
 21
224.2520818944
  0
LINE
  8
Layer0$C$L0
 62
     3
 10
69.6131063700
 20
224.2520818944
 11
69.6045248288
 21
223.9159792053
  0
LINE
  8
Layer0$C$L0
 62
     3
 10
69.6045248288
 20
223.9159792053
 11
69.6301534017
 21
223.5844217286
  0
LINE
  8
Layer0$C$L0
 62
     3
 10
69.6301534017
 20
223.5844217286
 11
69.6886104457
 21
223.2752838135
  0
LINE
  8
Layer0$C$L0
 62
     3
 10
69.9270716701
 20
225.5989944679
 11
69.7881800704
 21
225.4160696572
  0
LINE
  8
Layer0$C$L0
 62
     3
 10
69.9538205596
 20
225.2960681541
 11
69.8305116912
 21
225.1110637107
  0
LINE
  8
Layer0$C$L0
 62
     3
 10
72.3432870550
 20
220.4739532471
 11
72.3432870550
 21
227.4571990967
  0
LINE
  8
Layer0$C$L0
 62
     3
 10
72.9044747992
 20
219.9003143311
 11
72.9044747992
 21
228.1002960205
  0
LINE
  8
Layer0$C$L0
 62
     3
 10
73.0256295843
 20
219.9003143311
 11
73.0256295843
 21
228.1002960205
  0
LINE
  8
Layer0$C$L0
 62
     3
 10
74.2202401800
 20
219.9003143311
 11
74.2202401800
 21
228.1002960205
  0
LINE
  8
Layer0$C$L0
 62
     3
 10
72.4924569769
 20
220.3003082276
 11
72.9044747992
 21
220.3003082276
  0
LINE
  8
Layer0$C$L0
 62
     3
 10
71.7734018011
 20
220.0002899170
 11
71.7734018011
 21
220.2003021240
  0
LINE
  8
Layer0$C$L0
 62
     3
 10
72.4924569769
 20
220.3003082276
 11
72.4924569769
 21
220.0002899170
  0
LINE
  8
Layer0$C$L0
 62
     3
 10
72.4924569769
 20
227.7003021240
 11
72.9044747992
 21
227.7003021240
  0
LINE
  8
Layer0$C$L0
 62
     3
 10
71.7734018011
 20
228.0002899170
 11
71.7734018011
 21
227.8003082276
  0
LINE
  8
Layer0$C$L0
 62
     3
 10
72.4924569769
 20
227.7003021240
 11
72.4924569769
 21
228.0002899170
  0
LINE
  8
Layer0$C$L0
 62
     3
 10
69.4061837836
 20
239.2003021240
 11
71.7910714789
 21
239.2003021240
  0
LINE
  8
Layer0$C$L0
 62
     3
 10
71.0720163031
 20
239.0003204346
 11
72.4924569769
 21
239.0003204346
  0
LINE
  8
Layer0$C$L0
 62
     3
 10
68.7110543890
 20
239.0003204346
 11
70.1252389593
 21
239.0003204346
  0
LINE
  8
Layer0$C$L0
 62
     3
 10
68.3680673285
 20
238.9003143311
 11
68.3680673285
 21
237.7003021240
  0
LINE
  8
Layer0$C$L0
 62
     3
 10
71.0720163031
 20
239.0003204346
 11
71.0720163031
 21
239.2003021240
  0
LINE
  8
Layer0$C$L0
 62
     3
 10
70.1252389593
 20
239.2003021240
 11
70.1252389593
 21
239.0003204346
  0
LINE
  8
Layer0$C$L0
 62
     3
 10
69.4061837836
 20
239.0003204346
 11
69.4061837836
 21
239.2003021240
  0
LINE
  8
Layer0$C$L0
 62
     3
 10
71.9116159125
 20
229.3003082276
 11
71.9116159125
 21
237.7003021240
  0
LINE
  8
Layer0$C$L0
 62
     3
 10
72.4924569769
 20
239.3003082276
 11
72.9044747992
 21
239.3003082276
  0
LINE
  8
Layer0$C$L0
 62
     3
 10
71.7734018011
 20
239.0003204346
 11
71.7734018011
 21
239.2003021240
  0
LINE
  8
Layer0$C$L0
 62
     3
 10
72.4924569769
 20
239.3003082276
 11
72.4924569769
 21
239.0003204346
  0
LINE
  8
Layer0$C$L0
 62
     3
 10
72.8787179633
 20
238.9003143311
 11
72.8787179633
 21
237.7003021240
  0
LINE
  8
Layer0$C$L0
 62
     3
 10
77.8116403265
 20
220.2810211182
 11
77.8116403265
 21
227.6993255615
  0
LINE
  8
Layer0$C$L0
 62
     3
 10
78.0308175726
 20
219.2117156983
 11
78.0308175726
 21
219.7955169678
  0
ARC
  8
Layer0$C$L0
 62
     3
 10
77.7308297797
 20
219.1002960205
 40
0.3000000119
 50
304.2394625972
 51
348.7908570248
  0
LINE
  8
Layer0$C$L0
 62
     3
 10
78.3116403265
 20
218.8003082276
 11
78.3116403265
 21
228.1002960205
  0
LINE
  8
Layer0$C$L0
 62
     3
 10
75.2116342230
 20
229.3003082276
 11
75.2116342230
 21
237.7003021240
  0
LINE
  8
Layer0$C$L0
 62
     3
 10
79.7960458441
 20
247.9003143311
 11
63.4670358343
 21
247.9003143311
  0
LINE
  8
Layer0$C$L0
 62
     3
 10
78.3116403265
 20
247.1002960205
 11
67.1116281195
 21
247.1002960205
  0
LINE
  8
Layer0$C$L0
 62
     3
 10
69.4061837836
 20
246.8003082276
 11
71.7910714789
 21
246.8003082276
  0
LINE
  8
Layer0$C$L0
 62
     3
 10
68.7110543890
 20
247.0003204346
 11
72.9044747992
 21
247.0003204346
  0
LINE
  8
Layer0$C$L0
 62
     3
 10
68.7108297412
 20
241.4539820235
 11
68.8267078304
 21
241.6262325336
  0
LINE
  8
Layer0$C$L0
 62
     3
 10
68.8267078304
 20
241.6262325336
 11
68.9271444497
 21
241.8431468414
  0
LINE
  8
Layer0$C$L0
 62
     3
 10
68.9271444497
 20
241.8431468414
 11
69.0088749744
 21
242.0976742939
  0
LINE
  8
Layer0$C$L0
 62
     3
 10
69.0088749744
 20
242.0976742939
 11
69.0692428094
 21
242.3815416486
  0
LINE
  8
Layer0$C$L0
 62
     3
 10
69.0692428094
 20
242.3815416486
 11
69.1062857388
 21
242.6855219891
  0
LINE
  8
Layer0$C$L0
 62
     3
 10
69.1062857388
 20
242.6855219891
 11
69.1187997074
 21
242.9997346402
  0
LINE
  8
Layer0$C$L0
 62
     3
 10
69.1187997074
 20
242.9997346402
 11
69.1063779570
 21
243.3139663320
  0
LINE
  8
Layer0$C$L0
 62
     3
 10
69.1063779570
 20
243.3139663320
 11
69.0694242483
 21
243.6180031762
  0
LINE
  8
Layer0$C$L0
 62
     3
 10
69.0694242483
 20
243.6180031762
 11
69.0091397366
 21
243.9019626607
  0
LINE
  8
Layer0$C$L0
 62
     3
 10
69.0091397366
 20
243.9019626607
 11
68.9274839291
 21
244.1566148747
  0
LINE
  8
Layer0$C$L0
 62
     3
 10
68.9274839291
 20
244.1566148747
 11
68.8271109926
 21
244.3736825201
  0
LINE
  8
Layer0$C$L0
 62
     3
 10
68.8271109926
 20
244.3736825201
 11
68.7112834815
 21
244.5461099600
  0
LINE
  8
Layer0$C$L0
 62
     3
 10
68.7106585182
 20
242.1045584323
 11
68.7572644388
 21
242.3137132116
  0
LINE
  8
Layer0$C$L0
 62
     3
 10
68.7572644388
 20
242.3137132116
 11
68.7911868815
 21
242.5352097393
  0
LINE
  8
Layer0$C$L0
 62
     3
 10
68.7911868815
 20
242.5352097393
 11
68.8118160913
 21
242.7650666207
  0
LINE
  8
Layer0$C$L0
 62
     3
 10
68.8118160913
 20
242.7650666207
 11
68.8187812587
 21
242.9991521836
  0
LINE
  8
Layer0$C$L0
 62
     3
 10
68.8187812587
 20
242.9991521836
 11
68.8119571849
 21
243.2332587459
  0
LINE
  8
Layer0$C$L0
 62
     3
 10
68.8119571849
 20
243.2332587459
 11
68.7914665325
 21
243.4631782476
  0
LINE
  8
Layer0$C$L0
 62
     3
 10
68.7914665325
 20
243.4631782476
 11
68.7576776206
 21
243.6847778912
  0
LINE
  8
Layer0$C$L0
 62
     3
 10
68.7576776206
 20
243.6847778912
 11
68.7111978039
 21
243.8940744284
  0
LINE
  8
Layer0$C$L0
 62
     3
 10
70.2391341906
 20
244.7503204346
 11
70.0796373139
 21
244.7120804574
  0
LINE
  8
Layer0$C$L0
 62
     3
 10
70.0796373139
 20
244.7120804574
 11
69.9271103907
 21
244.5990283532
  0
LINE
  8
Layer0$C$L0
 62
     3
 10
69.9270758798
 20
241.4016192515
 11
70.0796003626
 21
241.2885638548
  0
LINE
  8
Layer0$C$L0
 62
     3
 10
70.0796003626
 20
241.2885638548
 11
70.2390964137
 21
241.2503204346
  0
LINE
  8
Layer0$C$L0
 62
     3
 10
70.2390964137
 20
241.2503204346
 11
70.3985932903
 21
241.2885604118
  0
LINE
  8
Layer0$C$L0
 62
     3
 10
70.3985932903
 20
241.2885604118
 11
70.5511202136
 21
241.4016125160
  0
LINE
  8
Layer0$C$L0
 62
     3
 10
70.5511202136
 20
241.4016125160
 11
70.6900110250
 21
241.5845358276
  0
LINE
  8
Layer0$C$L0
 62
     3
 10
70.6900110250
 20
241.5845358276
 11
70.8091955298
 21
241.8293357202
  0
LINE
  8
Layer0$C$L0
 62
     3
 10
70.8091955298
 20
241.8293357202
 11
70.9034647930
 21
242.1253132639
  0
LINE
  8
Layer0$C$L0
 62
     3
 10
70.9034647930
 20
242.1253132639
 11
70.9686987956
 21
242.4595328197
  0
LINE
  8
Layer0$C$L0
 62
     3
 10
70.9686987956
 20
242.4595328197
 11
71.0020464986
 21
242.8173873892
  0
LINE
  8
Layer0$C$L0
 62
     3
 10
71.0020464986
 20
242.8173873892
 11
71.0020504473
 21
243.1832370107
  0
LINE
  8
Layer0$C$L0
 62
     3
 10
71.0020504473
 20
243.1832370107
 11
70.9687104693
 21
243.5410923000
  0
LINE
  8
Layer0$C$L0
 62
     3
 10
70.9687104693
 20
243.5410923000
 11
70.9034836814
 21
243.8753132639
  0
LINE
  8
Layer0$C$L0
 62
     3
 10
70.9034836814
 20
243.8753132639
 11
70.8092208074
 21
244.1712928425
  0
LINE
  8
Layer0$C$L0
 62
     3
 10
70.8092208074
 20
244.1712928425
 11
70.6900415872
 21
244.4160953079
  0
LINE
  8
Layer0$C$L0
 62
     3
 10
70.6900415872
 20
244.4160953079
 11
70.5511547244
 21
244.5990216177
  0
LINE
  8
Layer0$C$L0
 62
     3
 10
70.5511547244
 20
244.5990216177
 11
70.3986302416
 21
244.7120770144
  0
LINE
  8
Layer0$C$L0
 62
     3
 10
70.3986302416
 20
244.7120770144
 11
70.2391341906
 21
244.7503204346
  0
LINE
  8
Layer0$C$L0
 62
     3
 10
70.2391000433
 20
241.5503082276
 11
70.3856911680
 21
241.5893934943
  0
LINE
  8
Layer0$C$L0
 62
     3
 10
70.3856911680
 20
241.5893934943
 11
70.5243795271
 21
241.7045421975
  0
LINE
  8
Layer0$C$L0
 62
     3
 10
70.5243795271
 20
241.7045421975
 11
70.6476883954
 21
241.8895466409
  0
LINE
  8
Layer0$C$L0
 62
     3
 10
70.6476883954
 20
241.8895466409
 11
70.7489701600
 21
242.1344331871
  0
LINE
  8
Layer0$C$L0
 62
     3
 10
70.7489701600
 20
242.1344331871
 11
70.8227646945
 21
242.4259999389
  0
LINE
  8
Layer0$C$L0
 62
     3
 10
70.8227646945
 20
242.4259999389
 11
70.8650937167
 21
242.7485284573
  0
LINE
  8
Layer0$C$L0
 62
     3
 10
70.8650937167
 20
242.7485284573
 11
70.8736752578
 21
243.0846311463
  0
LINE
  8
Layer0$C$L0
 62
     3
 10
70.8736752578
 20
243.0846311463
 11
70.8480466849
 21
243.4161886230
  0
LINE
  8
Layer0$C$L0
 62
     3
 10
70.8480466849
 20
243.4161886230
 11
70.7895896410
 21
243.7253265381
  0
LINE
  8
Layer0$C$L0
 62
     3
 10
70.7895896410
 20
243.7253265381
 11
70.7014555603
 21
243.9953791865
  0
LINE
  8
Layer0$C$L0
 62
     3
 10
70.7014555603
 20
243.9953791865
 11
70.5883957741
 21
244.2117879600
  0
LINE
  8
Layer0$C$L0
 62
     3
 10
70.5883957741
 20
244.2117879600
 11
70.4565053645
 21
244.3628862056
  0
LINE
  8
Layer0$C$L0
 62
     3
 10
70.4565053645
 20
244.3628862056
 11
70.3128945779
 21
244.4405281778
  0
LINE
  8
Layer0$C$L0
 62
     3
 10
70.3128945779
 20
244.4405281778
 11
70.1653055088
 21
244.4405281778
  0
LINE
  8
Layer0$C$L0
 62
     3
 10
70.1653055088
 20
244.4405281778
 11
70.0216947221
 21
244.3628862056
  0
LINE
  8
Layer0$C$L0
 62
     3
 10
70.0216947221
 20
244.3628862056
 11
69.8898043126
 21
244.2117879600
  0
LINE
  8
Layer0$C$L0
 62
     3
 10
69.9538205596
 20
241.7045421975
 11
70.0925089187
 21
241.5893934943
  0
LINE
  8
Layer0$C$L0
 62
     3
 10
70.0925089187
 20
241.5893934943
 11
70.2391000433
 21
241.5503082276
  0
LINE
  8
Layer0$C$L0
 62
     3
 10
69.7882195792
 20
244.4161050416
 11
69.6690350745
 21
244.1713051489
  0
LINE
  8
Layer0$C$L0
 62
     3
 10
69.6690350745
 20
244.1713051489
 11
69.5747658112
 21
243.8753276053
  0
LINE
  8
Layer0$C$L0
 62
     3
 10
69.5747658112
 20
243.8753276053
 11
69.5095318086
 21
243.5411080495
  0
LINE
  8
Layer0$C$L0
 62
     3
 10
69.5095318086
 20
243.5411080495
 11
69.4761841057
 21
243.1832534799
  0
LINE
  8
Layer0$C$L0
 62
     3
 10
69.4761841057
 20
243.1832534799
 11
69.4761801569
 21
242.8174038585
  0
LINE
  8
Layer0$C$L0
 62
     3
 10
69.4761801569
 20
242.8174038585
 11
69.5095201350
 21
242.4595485692
  0
LINE
  8
Layer0$C$L0
 62
     3
 10
69.5095201350
 20
242.4595485692
 11
69.5747469228
 21
242.1253276053
  0
LINE
  8
Layer0$C$L0
 62
     3
 10
69.5747469228
 20
242.1253276053
 11
69.6690097968
 21
241.8293480267
  0
LINE
  8
Layer0$C$L0
 62
     3
 10
69.6690097968
 20
241.8293480267
 11
69.7881890171
 21
241.5845455613
  0
LINE
  8
Layer0$C$L0
 62
     3
 10
69.7767445264
 20
243.9953791865
 11
69.6886104457
 21
243.7253265381
  0
LINE
  8
Layer0$C$L0
 62
     3
 10
69.6886104457
 20
243.7253265381
 11
69.6301534017
 21
243.4161886230
  0
LINE
  8
Layer0$C$L0
 62
     3
 10
69.6301534017
 20
243.4161886230
 11
69.6045248288
 21
243.0846311463
  0
LINE
  8
Layer0$C$L0
 62
     3
 10
69.6045248288
 20
243.0846311463
 11
69.6131063700
 21
242.7485284573
  0
LINE
  8
Layer0$C$L0
 62
     3
 10
69.6131063700
 20
242.7485284573
 11
69.6554353921
 21
242.4259999389
  0
LINE
  8
Layer0$C$L0
 62
     3
 10
69.6554353921
 20
242.4259999389
 11
69.7292299267
 21
242.1344331871
  0
LINE
  8
Layer0$C$L0
 62
     3
 10
69.7292299267
 20
242.1344331871
 11
69.8305116912
 21
241.8895466409
  0
LINE
  8
Layer0$C$L0
 62
     3
 10
69.9271103907
 20
244.5990283532
 11
69.7882195792
 21
244.4161050416
  0
LINE
  8
Layer0$C$L0
 62
     3
 10
69.7881890171
 20
241.5845455613
 11
69.9270758798
 21
241.4016192515
  0
LINE
  8
Layer0$C$L0
 62
     3
 10
69.8898043126
 20
244.2117879600
 11
69.7767445264
 21
243.9953791865
  0
LINE
  8
Layer0$C$L0
 62
     3
 10
69.8305116912
 20
241.8895466409
 11
69.9538205596
 21
241.7045421975
  0
LINE
  8
Layer0$C$L0
 62
     3
 10
68.3680673285
 20
248.2003021240
 11
68.3680673285
 21
247.1002960205
  0
LINE
  8
Layer0$C$L0
 62
     3
 10
71.0720163031
 20
247.0003204346
 11
71.0720163031
 21
246.8003082276
  0
LINE
  8
Layer0$C$L0
 62
     3
 10
70.1252389593
 20
246.8003082276
 11
70.1252389593
 21
247.0003204346
  0
LINE
  8
Layer0$C$L0
 62
     3
 10
69.4061837836
 20
247.0003204346
 11
69.4061837836
 21
246.8003082276
  0
LINE
  8
Layer0$C$L0
 62
     3
 10
72.4924569769
 20
246.7003021240
 11
72.9044747992
 21
246.7003021240
  0
LINE
  8
Layer0$C$L0
 62
     3
 10
71.7734018011
 20
247.0003204346
 11
71.7734018011
 21
246.8003082276
  0
LINE
  8
Layer0$C$L0
 62
     3
 10
72.4924569769
 20
246.7003021240
 11
72.4924569769
 21
247.0003204346
  0
LINE
  8
Layer0$C$L0
 62
     3
 10
78.0308175726
 20
247.7888946533
 11
78.0308175726
 21
247.2050933838
  0
ARC
  8
Layer0$C$L0
 62
     3
 10
77.7308297797
 20
247.9003143311
 40
0.3000000119
 50
11.2091395601
 51
55.7605408179
  0
TEXT
  8
Layer0$C$L0
 62
     7
 10
108.0000000000
 20
115.0000029552
 40
2.9999940395
  1
ABS111N*
 72
     5
 11
131.1977619981
 21
115.0000029552
  0
TEXT
  8
Layer0$C$L0
 62
     7
 10
108.0000000000
 20
110.0000029552
 40
2.9999940395
  1
ABS120N*
 72
     5
 11
131.1977619981
 21
110.0000029552
  0
TEXT
  8
Layer0$C$L0
 62
     7
 10
108.0000000000
 20
105.0000029552
 40
2.9999940395
  1
ABS102N*
 72
     5
 11
131.1977619981
 21
105.0000029552
  0
LINE
  8
Layer0$C$L0
 62
     3
 10
111.5116983099
 20
243.1002960205
 11
110.7116952582
 21
243.1002960205
  0
LINE
  8
Layer0$C$L0
 62
     3
 10
105.9117084801
 20
248.5002769935
 11
106.2117107530
 21
248.0002734834
  0
LINE
  8
Layer0$C$L0
 62
     3
 10
110.7116984140
 20
246.5002941543
 11
106.2117061648
 21
248.0002913822
  0
LINE
  8
Layer0$C$L0
 62
     3
 10
101.7116909336
 20
248.0002893496
 11
102.2116914644
 21
248.5002898804
  0
LINE
  8
Layer0$C$L0
 62
     3
 10
101.7116952582
 20
246.0003051758
 11
100.7116952582
 21
246.0003051758
  0
LINE
  8
Layer0$C$L0
 62
     3
 10
101.7116952582
 20
245.2003021240
 11
100.7116952582
 21
245.2003021240
  0
LINE
  8
Layer0$C$L0
 62
     3
 10
102.2116952582
 20
244.7003021240
 11
105.9117074652
 21
244.7003021240
  0
LINE
  8
Layer0$C$L0
 62
     3
 10
102.2116952582
 20
243.0002899170
 11
105.9117074652
 21
243.0002899170
  0
LINE
  8
Layer0$C$L0
 62
     3
 10
102.9906411810
 20
241.0002899170
 11
105.9117074652
 21
241.0002899170
  0
LINE
  8
Layer0$C$L0
 62
     3
 10
102.2116952582
 20
248.5003051758
 11
105.9117074652
 21
248.5003051758
  0
LINE
  8
Layer0$C$L0
 62
     3
 10
102.2116952582
 20
248.0003051758
 11
105.9117074652
 21
248.0003051758
  0
LINE
  8
Layer0$C$L0
 62
     3
 10
102.2116952582
 20
247.2003021240
 11
105.9117074652
 21
247.2003021240
  0
LINE
  8
Layer0$C$L0
 62
     3
 10
102.2116952582
 20
246.1002960205
 11
105.9117074652
 21
246.1002960205
  0
ARC
  8
Layer0$C$L0
 62
     3
 10
94.2116952582
 20
249.5002899170
 40
0.5000000000
 50
0.0000000000
 51
89.9999273724
  0
ARC
  8
Layer0$C$L0
 62
     3
 10
94.2116952582
 20
247.8003387451
 40
0.5000000000
 50
0.0000000000
 51
89.9999273724
  0
LINE
  8
Layer0$C$L0
 62
     3
 10
92.7116952582
 20
250.0002899170
 11
92.7116952582
 21
248.3003387451
  0
LINE
  8
Layer0$C$L0
 62
     3
 10
92.7116952582
 20
250.0002899170
 11
94.2116952582
 21
250.0002899170
  0
LINE
  8
Layer0$C$L0
 62
     3
 10
100.7116952582
 20
250.5003051758
 11
94.7116952582
 21
250.5003051758
  0
ARC
  8
Layer0$C$L0
 62
     3
 10
111.5116983099
 20
242.6002960205
 40
0.5000000000
 50
0.0000000000
 51
89.9999820139
  0
ARC
  8
Layer0$C$L0
 62
     3
 10
79.9116159125
 20
247.9003143311
 40
0.3000000119
 50
0.0000000000
 51
89.9999820139
  0
ARC
  8
Layer0$C$L0
 62
     3
 10
62.4953561468
 20
247.9003143311
 40
0.3000000119
 50
89.9999820139
 51
179.9999640278
  0
LINE
  8
Layer0$C$L0
 62
     3
 10
63.0854440375
 20
248.2003021240
 11
63.0854440375
 21
247.4003143311
  0
ARC
  8
Layer0$C$L0
 62
     3
 10
63.3854318304
 20
247.4003143311
 40
0.3000000119
 50
179.9999640278
 51
270.0000006832
  0
LINE
  8
Layer0$C$L0
 62
     3
 10
61.8774017154
 20
243.4510665861
 11
61.8366036075
 21
243.8919944718
  0
LINE
  8
Layer0$C$L0
 62
     3
 10
61.8911080958
 20
243.0005687719
 11
61.8774017154
 21
243.4510665861
  0
LINE
  8
Layer0$C$L0
 62
     3
 10
61.8774317445
 20
242.5500656852
 11
61.8911080958
 21
243.0005687719
  0
LINE
  8
Layer0$C$L0
 62
     3
 10
61.8366630281
 20
242.1091220938
 11
61.8774317445
 21
242.5500656852
  0
LINE
  8
Layer0$C$L0
 62
     3
 10
65.9116159125
 20
247.1002960205
 11
63.3854318304
 21
247.1002960205
  0
ARC
  8
Layer0$C$L0
 62
     3
 10
59.6116281195
 20
247.9003143311
 40
0.3000000119
 50
89.9999820139
 51
179.9999640278
  0
LINE
  8
Layer0$C$L0
 62
     3
 10
60.3712983372
 20
246.0506019010
 11
60.1893198329
 21
245.9378563126
  0
LINE
  8
Layer0$C$L0
 62
     3
 10
61.1083741956
 20
245.8507570514
 11
60.9306538287
 21
245.9975914894
  0
LINE
  8
Layer0$C$L0
 62
     3
 10
60.5983833845
 20
242.5000152588
 11
60.5324225329
 21
242.4884862776
  0
LINE
  8
Layer0$C$L0
 62
     3
 10
60.5324225329
 20
243.5118494158
 11
60.5983833845
 21
243.5003204346
  0
LINE
  8
Layer0$C$L0
 62
     3
 10
61.0106509299
 20
245.9400524251
 11
60.4521827060
 21
245.9074728662
  0
LINE
  8
Layer0$C$L0
 62
     3
 10
60.2664887992
 20
244.1956949406
 11
60.2600948014
 21
244.0974162409
  0
LINE
  8
Layer0$C$L0
 62
     3
 10
60.2734305239
 20
244.2937894565
 11
60.2664887992
 21
244.1956949406
  0
LINE
  8
Layer0$C$L0
 62
     3
 10
60.2809189058
 20
244.3916846740
 11
60.2734305239
 21
244.2937894565
  0
LINE
  8
Layer0$C$L0
 62
     3
 10
60.2889527912
 20
244.4893655094
 11
60.2809189058
 21
244.3916846740
  0
LINE
  8
Layer0$C$L0
 62
     3
 10
60.2975309422
 20
244.5868169121
 11
60.2889527912
 21
244.4893655094
  0
LINE
  8
Layer0$C$L0
 62
     3
 10
60.3066520370
 20
244.6840238667
 11
60.2975309422
 21
244.5868169121
  0
LINE
  8
Layer0$C$L0
 62
     3
 10
60.3163146703
 20
244.7809713955
 11
60.3066520370
 21
244.6840238667
  0
LINE
  8
Layer0$C$L0
 62
     3
 10
60.3265173532
 20
244.8776445607
 11
60.3163146703
 21
244.7809713955
  0
LINE
  8
Layer0$C$L0
 62
     3
 10
60.3164082753
 20
241.2188235855
 11
60.3266220446
 21
241.1220975518
  0
LINE
  8
Layer0$C$L0
 62
     3
 10
60.3067351604
 20
241.3158244279
 11
60.3164082753
 21
241.2188235855
  0
LINE
  8
Layer0$C$L0
 62
     3
 10
60.2976041922
 20
241.4130851158
 11
60.3067351604
 21
241.3158244279
  0
LINE
  8
Layer0$C$L0
 62
     3
 10
60.2890167791
 20
241.5105906462
 11
60.2976041922
 21
241.4130851158
  0
LINE
  8
Layer0$C$L0
 62
     3
 10
60.2809742460
 20
241.6083259780
 11
60.2890167791
 21
241.5105906462
  0
LINE
  8
Layer0$C$L0
 62
     3
 10
60.2734778332
 20
241.7062760350
 11
60.2809742460
 21
241.6083259780
  0
LINE
  8
Layer0$C$L0
 62
     3
 10
60.2665286973
 20
241.8044257075
 11
60.2734778332
 21
241.7062760350
  0
LINE
  8
Layer0$C$L0
 62
     3
 10
60.2601279102
 20
241.9027598554
 11
60.2665286973
 21
241.8044257075
  0
LINE
  8
Layer0$C$L0
 62
     3
 10
60.0967382590
 20
244.8860510568
 11
60.0398461850
 21
244.8654804080
  0
LINE
  8
Layer0$C$L0
 62
     3
 10
60.1541176204
 20
244.8976023618
 11
60.0967382590
 21
244.8860510568
  0
LINE
  8
Layer0$C$L0
 62
     3
 10
60.2117098269
 20
244.9000790739
 11
60.1541176204
 21
244.8976023618
  0
LINE
  8
Layer0$C$L0
 62
     3
 10
60.2692394182
 20
244.8934693470
 11
60.2117098269
 21
244.9000790739
  0
LINE
  8
Layer0$C$L0
 62
     3
 10
60.3264312335
 20
244.8778047952
 11
60.2692394182
 21
244.8934693470
  0
LINE
  8
Layer0$C$L0
 62
     3
 10
60.2690766104
 20
241.1071340591
 11
60.3262416120
 21
241.1227582760
  0
LINE
  8
Layer0$C$L0
 62
     3
 10
60.2115749446
 20
241.1005558949
 11
60.2690766104
 21
241.1071340591
  0
LINE
  8
Layer0$C$L0
 62
     3
 10
60.1540113701
 20
241.1030552152
 11
60.2115749446
 21
241.1005558949
  0
LINE
  8
Layer0$C$L0
 62
     3
 10
60.0966609379
 20
241.1146200778
 11
60.1540113701
 21
241.1030552152
  0
LINE
  8
Layer0$C$L0
 62
     3
 10
60.0397976808
 20
241.1351952233
 11
60.0966609379
 21
241.1146200778
  0
LINE
  8
Layer0$C$L0
 62
     3
 10
60.2667758183
 20
242.0170645162
 11
60.2602792425
 21
241.9000091553
  0
LINE
  8
Layer0$C$L0
 62
     3
 10
60.2860158858
 20
242.1296215069
 11
60.2667758183
 21
242.0170645162
  0
LINE
  8
Layer0$C$L0
 62
     3
 10
60.3172600604
 20
242.2333546273
 11
60.2860158858
 21
242.1296215069
  0
LINE
  8
Layer0$C$L0
 62
     3
 10
60.3593076465
 20
242.3242774733
 11
60.3172600604
 21
242.2333546273
  0
LINE
  8
Layer0$C$L0
 62
     3
 10
60.4105427796
 20
242.3988959322
 11
60.3593076465
 21
242.3242774733
  0
LINE
  8
Layer0$C$L0
 62
     3
 10
60.4689965229
 20
242.4543424597
 11
60.4105427796
 21
242.3988959322
  0
LINE
  8
Layer0$C$L0
 62
     3
 10
60.5324225329
 20
242.4884862776
 11
60.4689965229
 21
242.4543424597
  0
LINE
  8
Layer0$C$L0
 62
     3
 10
60.4689965229
 20
243.5459932338
 11
60.5324225329
 21
243.5118494158
  0
LINE
  8
Layer0$C$L0
 62
     3
 10
60.4105427796
 20
243.6014397612
 11
60.4689965229
 21
243.5459932338
  0
LINE
  8
Layer0$C$L0
 62
     3
 10
60.3593076465
 20
243.6760582202
 11
60.4105427796
 21
243.6014397612
  0
LINE
  8
Layer0$C$L0
 62
     3
 10
60.3172600604
 20
243.7669810661
 11
60.3593076465
 21
243.6760582202
  0
LINE
  8
Layer0$C$L0
 62
     3
 10
60.2860158858
 20
243.8707141865
 11
60.3172600604
 21
243.7669810661
  0
LINE
  8
Layer0$C$L0
 62
     3
 10
60.2667758183
 20
243.9832711773
 11
60.2860158858
 21
243.8707141865
  0
LINE
  8
Layer0$C$L0
 62
     3
 10
60.2602792425
 20
244.1003265381
 11
60.2667758183
 21
243.9832711773
  0
LINE
  8
Layer0$C$L0
 62
     3
 10
60.2658023049
 20
245.8652040380
 11
60.0840180496
 21
245.7609911065
  0
LINE
  8
Layer0$C$L0
 62
     3
 10
60.4523201308
 20
245.9074882094
 11
60.2658023049
 21
245.8652040380
  0
LINE
  8
Layer0$C$L0
 62
     3
 10
61.0149645525
 20
243.3772202946
 11
61.0021701083
 21
243.5002176874
  0
LINE
  8
Layer0$C$L0
 62
     3
 10
61.0241453256
 20
243.2525545014
 11
61.0149645525
 21
243.3772202946
  0
LINE
  8
Layer0$C$L0
 62
     3
 10
61.0296717875
 20
243.1267721584
 11
61.0241453256
 21
243.2525545014
  0
LINE
  8
Layer0$C$L0
 62
     3
 10
61.0315194747
 20
243.0004300591
 11
61.0296717875
 21
243.1267721584
  0
LINE
  8
Layer0$C$L0
 62
     3
 10
61.0296802079
 20
242.8740874745
 11
61.0315194747
 21
243.0004300591
  0
LINE
  8
Layer0$C$L0
 62
     3
 10
61.0241621291
 20
242.7483036779
 11
61.0296802079
 21
242.8740874745
  0
LINE
  8
Layer0$C$L0
 62
     3
 10
61.0149896648
 20
242.6236354691
 11
61.0241621291
 21
242.7483036779
  0
LINE
  8
Layer0$C$L0
 62
     3
 10
61.0022034182
 20
242.5006347094
 11
61.0149896648
 21
242.6236354691
  0
LINE
  8
Layer0$C$L0
 62
     3
 10
61.3433563391
 20
245.1500687622
 11
61.2038828890
 21
245.4016575503
  0
LINE
  8
Layer0$C$L0
 62
     3
 10
61.4661272890
 20
244.8566592929
 11
61.3433563391
 21
245.1500687622
  0
LINE
  8
Layer0$C$L0
 62
     3
 10
61.5698073826
 20
244.5271370589
 11
61.4661272890
 21
244.8566592929
  0
LINE
  8
Layer0$C$L0
 62
     3
 10
61.6523796525
 20
244.1679125056
 11
61.5698073826
 21
244.5271370589
  0
LINE
  8
Layer0$C$L0
 62
     3
 10
61.7122377578
 20
243.7859739001
 11
61.6523796525
 21
244.1679125056
  0
LINE
  8
Layer0$C$L0
 62
     3
 10
61.7482172336
 20
243.3887513832
 11
61.7122377578
 21
243.7859739001
  0
LINE
  8
Layer0$C$L0
 62
     3
 10
61.7596181438
 20
242.9839724251
 11
61.7482172336
 21
243.3887513832
  0
LINE
  8
Layer0$C$L0
 62
     3
 10
61.7462186979
 20
242.5795114972
 11
61.7596181438
 21
242.9839724251
  0
LINE
  8
Layer0$C$L0
 62
     3
 10
61.7082795656
 20
242.1832368840
 11
61.7462186979
 21
242.5795114972
  0
LINE
  8
Layer0$C$L0
 62
     3
 10
61.6465388053
 20
241.8028576154
 11
61.7082795656
 21
242.1832368840
  0
LINE
  8
Layer0$C$L0
 62
     3
 10
61.5621975070
 20
241.4457734974
 11
61.6465388053
 21
241.8028576154
  0
LINE
  8
Layer0$C$L0
 62
     3
 10
61.4568964256
 20
241.1189311574
 11
61.5621975070
 21
241.4457734974
  0
LINE
  8
Layer0$C$L0
 62
     3
 10
61.3326840628
 20
240.8286889068
 11
61.4568964256
 21
241.1189311574
  0
LINE
  8
Layer0$C$L0
 62
     3
 10
61.1919768157
 20
240.5806930479
 11
61.3326840628
 21
240.8286889068
  0
LINE
  8
Layer0$C$L0
 62
     3
 10
61.2753302919
 20
245.6434041279
 11
61.1083741956
 21
245.8507570514
  0
LINE
  8
Layer0$C$L0
 62
     3
 10
61.4279774219
 20
245.3799350918
 11
61.2753302919
 21
245.6434041279
  0
LINE
  8
Layer0$C$L0
 62
     3
 10
61.5630746882
 20
245.0659437342
 11
61.4279774219
 21
245.3799350918
  0
LINE
  8
Layer0$C$L0
 62
     3
 10
61.6777537997
 20
244.7080965009
 11
61.5630746882
 21
245.0659437342
  0
LINE
  8
Layer0$C$L0
 62
     3
 10
61.7695799692
 20
244.3139909552
 11
61.6777537997
 21
244.7080965009
  0
LINE
  8
Layer0$C$L0
 62
     3
 10
61.6778676214
 20
241.2929589024
 11
61.7696675198
 21
241.6870998051
  0
LINE
  8
Layer0$C$L0
 62
     3
 10
61.5632123645
 20
240.9350675109
 11
61.6778676214
 21
241.2929589024
  0
LINE
  8
Layer0$C$L0
 62
     3
 10
61.4281360297
 20
240.6210241316
 11
61.5632123645
 21
240.9350675109
  0
LINE
  8
Layer0$C$L0
 62
     3
 10
61.0021920843
 20
243.5003204346
 11
60.5983834906
 21
243.5003204346
  0
LINE
  8
Layer0$C$L0
 62
     3
 10
61.0021615668
 20
242.5003204346
 11
60.5983834906
 21
242.5003204346
  0
LINE
  8
Layer0$C$L0
 62
     3
 10
60.7459424263
 20
246.0807899552
 11
60.5581616522
 21
246.0985860371
  0
LINE
  8
Layer0$C$L0
 62
     3
 10
60.5581616522
 20
246.0985860371
 11
60.3712983372
 21
246.0506019010
  0
LINE
  8
Layer0$C$L0
 62
     3
 10
60.9306538287
 20
245.9975914894
 11
60.7459424263
 21
246.0807899552
  0
LINE
  8
Layer0$C$L0
 62
     3
 10
59.3822723745
 20
242.6234208548
 11
59.3950667843
 21
242.5004236771
  0
LINE
  8
Layer0$C$L0
 62
     3
 10
59.3730916229
 20
242.7480864258
 11
59.3822723745
 21
242.6234208548
  0
LINE
  8
Layer0$C$L0
 62
     3
 10
59.3675651693
 20
242.8738685422
 11
59.3730916229
 21
242.7480864258
  0
LINE
  8
Layer0$C$L0
 62
     3
 10
59.3657174773
 20
243.0002104137
 11
59.3675651693
 21
242.8738685422
  0
LINE
  8
Layer0$C$L0
 62
     3
 10
59.3675567258
 20
243.1265527723
 11
59.3657174773
 21
243.0002104137
  0
LINE
  8
Layer0$C$L0
 62
     3
 10
59.3730747733
 20
243.2523363476
 11
59.3675567258
 21
243.1265527723
  0
LINE
  8
Layer0$C$L0
 62
     3
 10
59.3822471933
 20
243.3770043429
 11
59.3730747733
 21
243.2523363476
  0
LINE
  8
Layer0$C$L0
 62
     3
 10
59.3950333831
 20
243.5000048996
 11
59.3822471933
 21
243.3770043429
  0
LINE
  8
Layer0$C$L0
 62
     3
 10
59.6708599967
 20
242.4883417270
 11
59.6339669277
 21
242.5000152588
  0
LINE
  8
Layer0$C$L0
 62
     3
 10
59.7063180971
 20
242.4537752921
 11
59.6708599967
 21
242.4883417270
  0
LINE
  8
Layer0$C$L0
 62
     3
 10
59.7389615009
 20
242.3976609860
 11
59.7063180971
 21
242.4537752921
  0
LINE
  8
Layer0$C$L0
 62
     3
 10
59.7675200045
 20
242.3221823005
 11
59.7389615009
 21
242.3976609860
  0
LINE
  8
Layer0$C$L0
 62
     3
 10
59.7908823535
 20
242.2302762246
 11
59.7675200045
 21
242.3221823005
  0
LINE
  8
Layer0$C$L0
 62
     3
 10
59.8081394839
 20
242.1255189615
 11
59.7908823535
 21
242.2302762246
  0
LINE
  8
Layer0$C$L0
 62
     3
 10
59.8186198948
 20
242.0119867736
 11
59.8081394839
 21
242.1255189615
  0
LINE
  8
Layer0$C$L0
 62
     3
 10
59.8219157778
 20
241.8940973685
 11
59.8186198948
 21
242.0119867736
  0
LINE
  8
Layer0$C$L0
 62
     3
 10
59.8183584147
 20
243.9836474873
 11
59.8219245686
 21
244.1008084881
  0
LINE
  8
Layer0$C$L0
 62
     3
 10
59.8076949827
 20
243.8709661205
 11
59.8183584147
 21
243.9836474873
  0
LINE
  8
Layer0$C$L0
 62
     3
 10
59.7903447452
 20
243.7671018841
 11
59.8076949827
 21
243.8709661205
  0
LINE
  8
Layer0$C$L0
 62
     3
 10
59.7669755730
 20
243.6760528726
 11
59.7903447452
 21
243.7671018841
  0
LINE
  8
Layer0$C$L0
 62
     3
 10
59.7384870265
 20
243.6013238783
 11
59.7669755730
 21
243.6760528726
  0
LINE
  8
Layer0$C$L0
 62
     3
 10
59.7059757286
 20
243.5457914792
 11
59.7384870265
 21
243.6013238783
  0
LINE
  8
Layer0$C$L0
 62
     3
 10
59.6706931520
 20
243.5115933099
 11
59.7059757286
 21
243.5457914792
  0
LINE
  8
Layer0$C$L0
 62
     3
 10
59.6339974453
 20
243.5000457764
 11
59.6706931520
 21
243.5115933099
  0
LINE
  8
Layer0$C$L0
 62
     3
 10
59.8272345739
 20
244.1827574192
 11
59.8219407264
 21
244.1010544989
  0
LINE
  8
Layer0$C$L0
 62
     3
 10
59.8329069970
 20
244.2643344445
 11
59.8272345739
 21
244.1827574192
  0
LINE
  8
Layer0$C$L0
 62
     3
 10
59.8389573920
 20
244.3457768894
 11
59.8329069970
 21
244.2643344445
  0
LINE
  8
Layer0$C$L0
 62
     3
 10
59.8453851145
 20
244.4270760826
 11
59.8389573920
 21
244.3457768894
  0
LINE
  8
Layer0$C$L0
 62
     3
 10
59.8521894803
 20
244.5082233680
 11
59.8453851145
 21
244.4270760826
  0
LINE
  8
Layer0$C$L0
 62
     3
 10
59.8593697648
 20
244.5892101060
 11
59.8521894803
 21
244.5082233680
  0
LINE
  8
Layer0$C$L0
 62
     3
 10
59.8669252035
 20
244.6700276738
 11
59.8593697648
 21
244.5892101060
  0
LINE
  8
Layer0$C$L0
 62
     3
 10
59.8748549921
 20
244.7506674667
 11
59.8669252035
 21
244.6700276738
  0
LINE
  8
Layer0$C$L0
 62
     3
 10
59.8669777689
 20
241.3299988032
 11
59.8749173420
 21
241.2492885112
  0
LINE
  8
Layer0$C$L0
 62
     3
 10
59.8594132085
 20
241.4108872531
 11
59.8669777689
 21
241.3299988032
  0
LINE
  8
Layer0$C$L0
 62
     3
 10
59.8522244677
 20
241.4919452333
 11
59.8594132085
 21
241.4108872531
  0
LINE
  8
Layer0$C$L0
 62
     3
 10
59.8454123132
 20
241.5731640980
 11
59.8522244677
 21
241.4919452333
  0
LINE
  8
Layer0$C$L0
 62
     3
 10
59.8389774716
 20
241.6545351845
 11
59.8454123132
 21
241.5731640980
  0
LINE
  8
Layer0$C$L0
 62
     3
 10
59.8329206292
 20
241.7360498134
 11
59.8389774716
 21
241.6545351845
  0
LINE
  8
Layer0$C$L0
 62
     3
 10
59.8272424321
 20
241.8176992906
 11
59.8329206292
 21
241.7360498134
  0
LINE
  8
Layer0$C$L0
 62
     3
 10
59.8219434859
 20
241.8994749071
 11
59.8272424321
 21
241.8176992906
  0
LINE
  8
Layer0$C$L0
 62
     3
 10
59.9286087132
 20
244.7977173008
 11
59.8747953580
 21
244.7508489495
  0
LINE
  8
Layer0$C$L0
 62
     3
 10
59.9837135099
 20
244.8359888038
 11
59.9286087132
 21
244.7977173008
  0
LINE
  8
Layer0$C$L0
 62
     3
 10
59.9286158854
 20
241.2029405295
 11
59.9836933037
 21
241.1646823391
  0
LINE
  8
Layer0$C$L0
 62
     3
 10
59.8748285977
 20
241.2497869886
 11
59.9286158854
 21
241.2029405295
  0
LINE
  8
Layer0$C$L0
 62
     3
 10
59.6050332484
 20
240.8955901185
 11
59.7498293281
 21
240.6240869402
  0
LINE
  8
Layer0$C$L0
 62
     3
 10
59.4792542546
 20
241.2125902024
 11
59.6050332484
 21
240.8955901185
  0
LINE
  8
Layer0$C$L0
 62
     3
 10
59.3752112483
 20
241.5682347591
 11
59.4792542546
 21
241.2125902024
  0
LINE
  8
Layer0$C$L0
 62
     3
 10
59.2951532754
 20
241.9548359977
 11
59.3752112483
 21
241.5682347591
  0
LINE
  8
Layer0$C$L0
 62
     3
 10
59.2408109092
 20
242.3640369519
 11
59.2951532754
 21
241.9548359977
  0
LINE
  8
Layer0$C$L0
 62
     3
 10
59.2133588414
 20
242.7869921288
 11
59.2408109092
 21
242.3640369519
  0
LINE
  8
Layer0$C$L0
 62
     3
 10
59.2133904898
 20
243.2145587173
 11
59.2133588414
 21
242.7869921288
  0
LINE
  8
Layer0$C$L0
 62
     3
 10
59.2409051701
 20
243.6374942237
 11
59.2133904898
 21
243.2145587173
  0
LINE
  8
Layer0$C$L0
 62
     3
 10
59.2953081113
 20
244.0466562621
 11
59.2409051701
 21
243.6374942237
  0
LINE
  8
Layer0$C$L0
 62
     3
 10
59.3754233122
 20
244.4332001807
 11
59.2953081113
 21
244.0466562621
  0
LINE
  8
Layer0$C$L0
 62
     3
 10
59.4795189624
 20
244.7887702525
 11
59.3754233122
 21
244.4332001807
  0
LINE
  8
Layer0$C$L0
 62
     3
 10
59.6053448781
 20
245.1056802965
 11
59.4795189624
 21
244.7887702525
  0
LINE
  8
Layer0$C$L0
 62
     3
 10
59.7501811432
 20
245.3770798264
 11
59.6053448781
 21
245.1056802965
  0
LINE
  8
Layer0$C$L0
 62
     3
 10
59.9108969046
 20
245.5971021339
 11
59.7501811432
 21
245.3770798264
  0
LINE
  8
Layer0$C$L0
 62
     3
 10
60.0160897804
 20
245.7627430078
 11
59.8552860794
 21
245.5289798704
  0
LINE
  8
Layer0$C$L0
 62
     3
 10
59.6339669867
 20
242.5003204346
 11
59.3950448675
 21
242.5003204346
  0
LINE
  8
Layer0$C$L0
 62
     3
 10
59.6342416449
 20
243.5003204346
 11
59.3950448675
 21
243.5003204346
  0
ARC
  8
Layer0$C$L0
 62
     3
 10
54.7116342230
 20
243.0003204346
 40
5.0000000000
 50
19.2047365875
 51
23.0739158089
  0
ARC
  8
Layer0$C$L0
 62
     3
 10
54.7116342230
 20
243.0003204346
 40
5.0000000000
 50
336.9260807760
 51
340.7948160352
  0
LINE
  8
Layer0$C$L0
 62
     3
 10
60.0398461850
 20
244.8654804080
 11
59.9837135099
 21
244.8359888038
  0
LINE
  8
Layer0$C$L0
 62
     3
 10
59.9836933037
 20
241.1646823391
 11
60.0397976808
 21
241.1351952233
  0
LINE
  8
Layer0$C$L0
 62
     3
 10
60.0840180496
 20
245.7609911065
 11
59.9108969046
 21
245.5971021339
  0
LINE
  8
Layer0$C$L0
 62
     3
 10
60.1893198329
 20
245.9378563126
 11
60.0160897804
 21
245.7627430078
  0
LINE
  8
Layer0$C$L0
 62
     3
 10
59.3116403265
 20
244.9599151612
 11
59.3116403265
 21
247.9003143311
  0
LINE
  8
Layer0$C$L0
 62
     3
 10
61.8366036075
 20
243.8919944718
 11
61.7695799692
 21
244.3139909552
  0
LINE
  8
Layer0$C$L0
 62
     3
 10
61.7696675198
 20
241.6870998051
 11
61.8366630281
 21
242.1091220938
  0
LINE
  8
Layer0$C$L0
 62
     3
 10
62.7816110297
 20
247.9003143311
 11
59.6343331976
 21
247.9003143311
  0
LINE
  8
Layer0$C$L0
 62
     3
 10
79.9116159125
 20
248.2003021240
 11
59.6116281195
 21
248.2003021240
  0
LINE
  8
Layer0$C$L0
 62
     3
 10
80.2116952582
 20
248.3003387451
 11
94.2116952582
 21
248.3003387451
  0
LINE
  8
Layer0$C$L0
 10
210.0000000000
 20
297.0000000000
 11
0.0000000000
 21
297.0000000000
  0
LINE
  8
Layer0$C$L0
 62
     3
 10
179.9114328070
 20
188.9002838135
 11
179.9114328070
 21
186.2996884890
  0
LINE
  8
Layer0$C$L0
 62
     3
 10
178.8114267035
 20
189.2002868653
 11
178.8114267035
 21
186.5003204346
  0
LINE
  8
Layer0$C$L0
 62
     3
 10
179.4114328070
 20
188.7384643555
 11
179.4114328070
 21
186.5003204346
  0
ARC
  8
Layer0$C$L0
 62
     3
 10
179.5109140082
 20
186.0003814698
 40
0.5000000000
 50
1.9989671877E-04
 51
90.0000179861
  0
ARC
  8
Layer0$C$L0
 62
     3
 10
179.6114297552
 20
188.9002838135
 40
0.3000000119
 50
0.0000000000
 51
89.9999820139
  0
LINE
  8
Layer0$C$L0
 62
     3
 10
180.0112649603
 20
186.0003204346
 11
180.0112649603
 21
176.8646738422
  0
ARC
  8
Layer0$C$L0
 62
     3
 10
169.7114358588
 20
188.9002838135
 40
0.3000000119
 50
89.9999820139
 51
179.9999640278
  0
LINE
  8
Layer0$C$L0
 62
     3
 10
170.6114297552
 20
188.7210693360
 11
170.6114297552
 21
187.0000000000
  0
LINE
  8
Layer0$C$L0
 62
     3
 10
170.5117898627
 20
187.0000000000
 11
169.4116922064
 21
187.0000000000
  0
LINE
  8
Layer0$C$L0
 62
     3
 10
169.4116922064
 20
187.0000000000
 11
169.4116922064
 21
184.9729662082
  0
LINE
  8
Layer0$C$L0
 62
     3
 10
169.3614297552
 20
187.0002899170
 11
169.3614297552
 21
184.9857001834
  0
LINE
  8
Layer0$C$L0
 62
     3
 10
170.5116677924
 20
187.0002441407
 11
170.5116677924
 21
186.5003204346
  0
LINE
  8
Layer0$C$L0
 62
     3
 10
169.4114328070
 20
187.0002899170
 11
169.4114328070
 21
188.9002838135
  0
LINE
  8
Layer0$C$L0
 62
     3
 10
179.5112649603
 20
186.5003204346
 11
170.5116677924
 21
186.5003204346
  0
LINE
  8
Layer0$C$L0
 62
     3
 10
170.6114297552
 20
186.8538665772
 11
178.8114267035
 21
186.8538665772
  0
LINE
  8
Layer0$C$L0
 62
     3
 10
170.6114297552
 20
188.1091308594
 11
178.8114267035
 21
188.1091308594
  0
LINE
  8
Layer0$C$L0
 62
     3
 10
170.8298593207
 20
187.3931427002
 11
178.5192208929
 21
187.3931427002
  0
LINE
  8
Layer0$C$L0
 62
     3
 10
179.6114297552
 20
189.2002868653
 11
169.7114358588
 21
189.2002868653
  0
LINE
  8
Layer0$C$L0
 62
     3
 10
170.6114297552
 20
188.7210693360
 11
178.8114267035
 21
188.7210693360
  0
ARC
  8
Layer0$C$L0
 62
     3
 10
179.5114633246
 20
151.0003814698
 40
0.5000000000
 50
270.0001632413
 51
360.0000906137
  0
LINE
  8
Layer0$C$L0
 62
     3
 10
180.0112649603
 20
160.1353261579
 11
180.0112649603
 21
151.0003814698
  0
LINE
  8
Layer0$C$L0
 62
     3
 10
169.4116922064
 20
150.0004882813
 11
170.5117898627
 21
150.0004882813
  0
LINE
  8
Layer0$C$L0
 62
     3
 10
169.4116922064
 20
152.0270337919
 11
169.4116922064
 21
150.0007324219
  0
LINE
  8
Layer0$C$L0
 62
     3
 10
169.3614297552
 20
150.0002899170
 11
169.3614297552
 21
152.0142998166
  0
LINE
  8
Layer0$C$L0
 62
     3
 10
170.5117898627
 20
150.5003204346
 11
170.5117898627
 21
150.0004882813
  0
LINE
  8
Layer0$C$L0
 62
     3
 10
179.5112649603
 20
150.5003204346
 11
170.5117898627
 21
150.5003204346
  0
LINE
  8
Layer0$C$L0
 62
     3
 10
170.6114297552
 20
150.1467132569
 11
178.8114267035
 21
150.1467132569
  0
LINE
  8
Layer0$C$L0
 62
     3
 10
170.6114297552
 20
148.8914489746
 11
178.8114267035
 21
148.8914489746
  0
LINE
  8
Layer0$C$L0
 62
     3
 10
170.8298593207
 20
149.6074371338
 11
178.5192208929
 21
149.6074371338
  0
LINE
  8
Layer0$C$L0
 62
     3
 10
166.3117166205
 20
187.0000000000
 11
166.3117166205
 21
185.4643621662
  0
LINE
  8
Layer0$C$L0
 62
     3
 10
166.3614297552
 20
187.0002899170
 11
166.3614297552
 21
185.4610649607
  0
LINE
  8
Layer0$C$L0
 62
     3
 10
166.7087503119
 20
186.5002899170
 11
168.9456735297
 21
186.5002899170
  0
LINE
  8
Layer0$C$L0
 62
     3
 10
164.0616250677
 20
187.0002899170
 11
164.0616250677
 21
185.4610649607
  0
LINE
  8
Layer0$C$L0
 62
     3
 10
164.1113382025
 20
187.0000000000
 11
164.1113382025
 21
185.4643621662
  0
LINE
  8
Layer0$C$L0
 62
     3
 10
164.1113382025
 20
187.0000000000
 11
166.3117166205
 21
187.0000000000
  0
ARC
  8
Layer0$C$L0
 62
     3
 10
160.7116189642
 20
188.9002838135
 40
0.3000000119
 50
3.5972178686E-05
 51
90.0000179861
  0
LINE
  8
Layer0$C$L0
 62
     3
 10
161.0616250677
 20
187.0002899170
 11
161.0616250677
 21
184.9857001834
  0
LINE
  8
Layer0$C$L0
 62
     3
 10
161.0113626166
 20
187.0000000000
 11
161.0113626166
 21
184.9729662082
  0
LINE
  8
Layer0$C$L0
 62
     3
 10
159.8116250677
 20
188.7210693360
 11
159.8116250677
 21
186.5003204346
  0
LINE
  8
Layer0$C$L0
 62
     3
 10
159.9113870306
 20
187.0002441407
 11
159.9113870306
 21
186.5003204346
  0
LINE
  8
Layer0$C$L0
 62
     3
 10
161.0116220160
 20
187.0002899170
 11
161.0116220160
 21
188.9002838135
  0
LINE
  8
Layer0$C$L0
 62
     3
 10
163.7143045111
 20
186.5002899170
 11
161.4773812933
 21
186.5002899170
  0
LINE
  8
Layer0$C$L0
 62
     3
 10
164.0616250677
 20
185.5002899170
 11
161.0616250677
 21
185.5002899170
  0
LINE
  8
Layer0$C$L0
 62
     3
 10
166.3117166205
 20
151.5356378339
 11
166.3117166205
 21
150.0007324219
  0
LINE
  8
Layer0$C$L0
 62
     3
 10
166.3614297552
 20
150.0002899170
 11
166.3614297552
 21
151.5389350394
  0
LINE
  8
Layer0$C$L0
 62
     3
 10
166.7087503119
 20
150.5002899170
 11
168.9456735297
 21
150.5002899170
  0
LINE
  8
Layer0$C$L0
 62
     3
 10
164.0616250677
 20
150.0002899170
 11
164.0616250677
 21
151.5389350394
  0
LINE
  8
Layer0$C$L0
 62
     3
 10
164.1116586371
 20
151.5356170558
 11
164.1116586371
 21
150.0007324219
  0
LINE
  8
Layer0$C$L0
 62
     3
 10
164.1116586371
 20
150.0004882813
 11
166.3117166205
 21
150.0004882813
  0
LINE
  8
Layer0$C$L0
 62
     3
 10
161.0616250677
 20
150.0002899170
 11
161.0616250677
 21
152.0142998166
  0
LINE
  8
Layer0$C$L0
 62
     3
 10
161.0116830511
 20
152.0269520930
 11
161.0116830511
 21
150.0007324219
  0
LINE
  8
Layer0$C$L0
 62
     3
 10
159.9117074652
 20
150.5003204346
 11
159.9117074652
 21
150.0004882813
  0
LINE
  8
Layer0$C$L0
 62
     3
 10
159.9117074652
 20
150.0004882813
 11
161.0116830511
 21
150.0004882813
  0
LINE
  8
Layer0$C$L0
 62
     3
 10
163.7143045111
 20
150.5002899170
 11
161.4773812933
 21
150.5002899170
  0
LINE
  8
Layer0$C$L0
 62
     3
 10
159.8116250677
 20
150.0002899170
 11
165.2116342230
 21
150.0002899170
  0
LINE
  8
Layer0$C$L0
 62
     3
 10
164.0616250677
 20
151.5002899170
 11
161.0616250677
 21
151.5002899170
  0
LINE
  8
Layer0$C$L0
 62
     3
 10
151.6116281195
 20
189.2002868653
 11
151.6116281195
 21
186.5003204346
  0
ARC
  8
Layer0$C$L0
 62
     3
 10
150.8116250677
 20
188.9002838135
 40
0.3000000119
 50
89.9999820139
 51
179.9999640278
  0
ARC
  8
Layer0$C$L0
 62
     3
 10
150.9121408148
 20
186.0003814698
 40
0.5000000000
 50
89.9999820139
 51
179.9998001033
  0
LINE
  8
Layer0$C$L0
 62
     3
 10
150.5116220160
 20
188.9002838135
 11
150.5116220160
 21
186.2996884890
  0
LINE
  8
Layer0$C$L0
 62
     3
 10
151.0116220160
 20
188.7384643555
 11
151.0116220160
 21
186.5003204346
  0
LINE
  8
Layer0$C$L0
 62
     3
 10
150.4117898627
 20
186.0003204346
 11
150.4117898627
 21
176.8646738422
  0
ARC
  8
Layer0$C$L0
 62
     3
 10
150.9115914984
 20
151.0003814698
 40
0.5000000000
 50
179.9999093863
 51
269.9998367587
  0
LINE
  8
Layer0$C$L0
 62
     3
 10
150.4117898627
 20
160.1353261579
 11
150.4117898627
 21
151.0003814698
  0
LINE
  8
Layer0$C$L0
 62
     3
 10
150.9117898627
 20
186.5003204346
 11
159.9113870306
 21
186.5003204346
  0
LINE
  8
Layer0$C$L0
 62
     3
 10
159.8116250677
 20
148.8914489746
 11
151.6116281195
 21
148.8914489746
  0
LINE
  8
Layer0$C$L0
 62
     3
 10
150.8116250677
 20
189.2002868653
 11
160.7116189642
 21
189.2002868653
  0
LINE
  8
Layer0$C$L0
 62
     3
 10
159.8116250677
 20
186.8538665772
 11
151.6116281195
 21
186.8538665772
  0
LINE
  8
Layer0$C$L0
 62
     3
 10
159.8116250677
 20
188.1091308594
 11
151.6116281195
 21
188.1091308594
  0
LINE
  8
Layer0$C$L0
 62
     3
 10
159.8116250677
 20
188.7210693360
 11
151.6116281195
 21
188.7210693360
  0
LINE
  8
Layer0$C$L0
 62
     3
 10
159.8116250677
 20
150.1467132569
 11
151.6116281195
 21
150.1467132569
  0
LINE
  8
Layer0$C$L0
 62
     3
 10
150.9117898627
 20
150.5003204346
 11
159.9117074652
 21
150.5003204346
  0
LINE
  8
Layer0$C$L0
 62
     3
 10
159.5931955023
 20
149.6074371338
 11
151.9038339300
 21
149.6074371338
  0
LINE
  8
Layer0$C$L0
 62
     3
 10
159.5931955023
 20
187.3931427002
 11
151.9038339300
 21
187.3931427002
  0
CIRCLE
  8
Layer0$C$L0
 62
     3
 10
165.2115274115
 20
168.5000000000
 40
17.0000000000
  0
LINE
  8
Layer0$C$L0
  6
CENTER
 62
     3
 10
184.1571037950
 20
168.5000000000
 11
146.2720349096
 21
168.5000000000
  0
CIRCLE
  8
Layer0$C$L0
 62
     3
 10
165.2115274115
 20
168.5000000000
 40
15.0000000000
  0
LINE
  8
Layer0$C$L0
 62
     3
 10
159.8116250677
 20
187.0002899170
 11
170.6114297552
 21
187.0002899170
  0
CIRCLE
  8
Layer0$C$L0
 62
     3
 10
165.2115274115
 20
168.5000000000
 40
13.0000000000
  0
CIRCLE
  8
Layer0$C$L0
 62
     3
 10
165.2115274115
 20
168.5000000000
 40
10.5000000000
  0
CIRCLE
  8
Layer0$C$L0
 62
     3
 10
165.2115274115
 20
168.5000000000
 40
9.5999994278
  0
LINE
  8
Layer0$C$L0
 62
     3
 10
170.6114297552
 20
150.0002899170
 11
166.3117166205
 21
150.0002899170
  0
LINE
  8
Layer0$C$L0
 62
     3
 10
166.3614297552
 20
151.5002899170
 11
169.3614297552
 21
151.5002899170
  0
LINE
  8
Layer0$C$L0
 62
     3
 10
166.3614297552
 20
185.5002899170
 11
169.3614297552
 21
185.5002899170
  0
ARC
  8
Layer0$C$L0
 62
     3
 10
179.6114297552
 20
148.1002960205
 40
0.3000000119
 50
270.0000179861
 51
360.0000000000
  0
ARC
  8
Layer0$C$L0
 62
     3
 10
169.7114358588
 20
148.1002960205
 40
0.3000000119
 50
179.9999640278
 51
270.0000006832
  0
LINE
  8
Layer0$C$L0
 62
     3
 10
179.6114297552
 20
147.8002929688
 11
169.7114358588
 21
147.8002929688
  0
LINE
  8
Layer0$C$L0
 62
     3
 10
170.6114297552
 20
148.2795104981
 11
178.8114267035
 21
148.2795104981
  0
ARC
  8
Layer0$C$L0
 62
     3
 10
160.7116189642
 20
148.1002960205
 40
0.3000000119
 50
270.0000179861
 51
360.0000000000
  0
ARC
  8
Layer0$C$L0
 62
     3
 10
150.8116250677
 20
148.1002960205
 40
0.3000000119
 50
179.9999640278
 51
270.0000006832
  0
LINE
  8
Layer0$C$L0
 62
     3
 10
159.8116250677
 20
148.2795104981
 11
151.6116281195
 21
148.2795104981
  0
LINE
  8
Layer0$C$L0
 62
     3
 10
150.8116250677
 20
147.8002929688
 11
160.7116189642
 21
147.8002929688
  0
LINE
  8
Layer0$C$L0
 62
     3
 10
150.5116220160
 20
150.7003407840
 11
150.5116220160
 21
148.1002960205
  0
LINE
  8
Layer0$C$L0
 62
     3
 10
151.6116281195
 20
147.8002929688
 11
151.6116281195
 21
150.5003204346
  0
LINE
  8
Layer0$C$L0
 62
     3
 10
151.0116220160
 20
150.5003204346
 11
151.0116220160
 21
148.2621154785
  0
LINE
  8
Layer0$C$L0
  6
CENTER
 62
     3
 10
165.2115274115
 20
191.1921291769
 11
165.2115274115
 21
146.2503204346
  0
LINE
  8
Layer0$C$L0
 62
     3
 10
161.0116220160
 20
150.0002899170
 11
161.0116220160
 21
148.1002960205
  0
LINE
  8
Layer0$C$L0
 62
     3
 10
159.8116250677
 20
148.2795104981
 11
159.8116250677
 21
150.5003204346
  0
LINE
  8
Layer0$C$L0
 62
     3
 10
169.4114328070
 20
150.0002899170
 11
169.4114328070
 21
148.1002960205
  0
LINE
  8
Layer0$C$L0
 62
     3
 10
170.6114297552
 20
148.2795104981
 11
170.6114297552
 21
150.5003204346
  0
LINE
  8
Layer0$C$L0
 62
     3
 10
179.9114328070
 20
150.7003407840
 11
179.9114328070
 21
148.1002960205
  0
LINE
  8
Layer0$C$L0
 62
     3
 10
178.8114267035
 20
147.8002929688
 11
178.8114267035
 21
150.5003204346
  0
LINE
  8
Layer0$C$L0
 62
     3
 10
179.4114328070
 20
150.5003204346
 11
179.4114328070
 21
148.2621154785
  0
TEXT
  8
Layer0$C$L0
 62
     5
 10
145.0000000000
 20
10.0000000000
 40
5.0000000000
  1
俵俙係-俙侽俁侾俁俈俠
 41
0.5404139395
 72
     5
 11
199.0413939487
 21
10.0000000000
  0
LINE
  8
Layer0$C$L0
 62
     3
 10
112.0116983099
 20
177.6003112793
 11
112.0116983099
 21
159.4003143311
  0
LINE
  8
Layer0$C$L0
 62
     3
 10
104.8990731879
 20
236.1002960205
 11
105.9117074652
 21
236.1002960205
  0
LINE
  8
Layer0$C$L0
 62
     3
 10
111.5116983099
 20
223.9002990723
 11
110.7116952582
 21
223.9002990723
  0
LINE
  8
Layer0$C$L0
 62
     3
 10
106.2116906358
 20
219.0002882306
 11
105.9116883630
 21
218.5002847206
  0
LINE
  8
Layer0$C$L0
 62
     3
 10
106.2117014149
 20
219.0002927145
 11
110.7116936642
 21
220.5002899425
  0
LINE
  8
Layer0$C$L0
 62
     3
 10
103.2243295355
 20
230.9002990723
 11
102.2116952582
 21
230.9002990723
  0
LINE
  8
Layer0$C$L0
 62
     3
 10
101.7116952582
 20
231.5003051758
 11
100.7116952582
 21
231.5003051758
  0
LINE
  8
Layer0$C$L0
 62
     3
 10
100.7116952582
 20
235.5003051758
 11
101.7116952582
 21
235.5003051758
  0
LINE
  8
Layer0$C$L0
 62
     3
 10
104.2369638129
 20
228.3002929688
 11
102.2116952582
 21
228.3002929688
  0
LINE
  8
Layer0$C$L0
 62
     3
 10
102.2116874183
 20
218.5002971450
 11
101.7116976771
 21
219.0002868862
  0
LINE
  8
Layer0$C$L0
 62
     3
 10
100.7116952582
 20
221.0003051758
 11
101.7116952582
 21
221.0003051758
  0
LINE
  8
Layer0$C$L0
 62
     3
 10
100.7116952582
 20
221.8002929688
 11
101.7116952582
 21
221.8002929688
  0
LINE
  8
Layer0$C$L0
 62
     3
 10
105.9117074652
 20
218.5003051758
 11
102.2116952582
 21
218.5003051758
  0
LINE
  8
Layer0$C$L0
 62
     3
 10
105.9117074652
 20
219.0003051758
 11
102.2116952582
 21
219.0003051758
  0
LINE
  8
Layer0$C$L0
 62
     3
 10
105.9117074652
 20
219.8002929688
 11
102.2116952582
 21
219.8002929688
  0
LINE
  8
Layer0$C$L0
 62
     3
 10
105.9117074652
 20
220.9002990723
 11
102.2116952582
 21
220.9002990723
  0
LINE
  8
Layer0$C$L0
 62
     3
 10
105.9117074652
 20
222.3002929688
 11
102.2116952582
 21
222.3002929688
  0
LINE
  8
Layer0$C$L0
 62
     3
 10
105.9117074652
 20
224.0003051758
 11
102.2116952582
 21
224.0003051758
  0
LINE
  8
Layer0$C$L0
 62
     3
 10
105.1327615424
 20
226.0003051758
 11
102.2116952582
 21
226.0003051758
  0
LINE
  8
Layer0$C$L0
 62
     3
 10
103.8864389105
 20
238.7003021240
 11
105.9117074652
 21
238.7003021240
  0
LINE
  8
Layer0$C$L0
 62
     3
 10
91.2116342230
 20
237.2752227783
 11
91.2116342230
 21
235.0497589112
  0
LINE
  8
Layer0$C$L0
 62
     3
 10
91.4116769476
 20
234.6502685547
 11
91.4116769476
 21
232.3503112793
  0
LINE
  8
Layer0$C$L0
 62
     3
 10
91.2116342230
 20
229.7253875733
 11
91.2116342230
 21
231.9508514405
  0
LINE
  8
Layer0$C$L0
 62
     3
 10
91.7116342230
 20
229.3502960205
 11
91.7116342230
 21
232.3502960205
  0
LINE
  8
Layer0$C$L0
 62
     3
 10
93.7116952582
 20
237.7004852295
 11
93.7116952582
 21
229.3000946045
  0
LINE
  8
Layer0$C$L0
 62
     3
 10
91.9116769476
 20
237.7004852295
 11
91.9116769476
 21
229.3000946045
  0
LINE
  8
Layer0$C$L0
 62
     3
 10
91.7116342230
 20
237.6503143311
 11
91.7116342230
 21
234.6503143311
  0
LINE
  8
Layer0$C$L0
 62
     3
 10
91.7116342230
 20
237.6002960205
 11
91.7116342230
 21
234.6002960205
  0
LINE
  8
Layer0$C$L0
 62
     3
 10
93.7116037054
 20
233.5002441407
 11
94.9116006537
 21
233.5002441407
  0
ARC
  8
Layer0$C$L0
 62
     3
 10
94.2116952582
 20
219.2002410889
 40
0.5000000000
 50
270.0000179861
 51
360.0000000000
  0
LINE
  8
Layer0$C$L0
 62
     3
 10
88.9116769476
 20
234.6502685547
 11
88.9116769476
 21
232.3503112793
  0
LINE
  8
Layer0$C$L0
 62
     3
 10
87.7116952582
 20
234.6003875733
 11
87.7116952582
 21
232.4001922608
  0
LINE
  8
Layer0$C$L0
 62
     3
 10
87.2116952582
 20
232.4001922608
 11
87.2116952582
 21
232.3503112793
  0
LINE
  8
Layer0$C$L0
 62
     3
 10
88.2116952582
 20
232.4001922608
 11
88.2116952582
 21
232.3503112793
  0
LINE
  8
Layer0$C$L0
 62
     3
 10
87.2116952582
 20
234.6502685547
 11
87.2116952582
 21
234.6003875733
  0
LINE
  8
Layer0$C$L0
 62
     3
 10
88.2116952582
 20
234.6502685547
 11
88.2116952582
 21
234.6003875733
  0
LINE
  8
Layer0$C$L0
 62
     3
 10
85.0116830511
 20
232.4001922608
 11
85.0116830511
 21
232.3503112793
  0
LINE
  8
Layer0$C$L0
 62
     3
 10
85.0116830511
 20
234.6502685547
 11
85.0116830511
 21
234.6003875733
  0
LINE
  8
Layer0$C$L0
 62
     3
 10
94.2116952582
 20
217.0002899170
 11
92.7116952582
 21
217.0002899170
  0
ARC
  8
Layer0$C$L0
 62
     3
 10
94.2116952582
 20
217.5002899170
 40
0.5000000000
 50
270.0000179861
 51
360.0000000000
  0
LINE
  8
Layer0$C$L0
 62
     3
 10
92.7116952582
 20
218.7002410889
 11
92.7116952582
 21
217.0002899170
  0
LINE
  8
Layer0$C$L0
 62
     3
 10
94.7116952582
 20
216.5003051758
 11
100.7116952582
 21
216.5003051758
  0
LINE
  8
Layer0$C$L0
 62
     3
 10
105.9116987487
 20
183.5003103070
 11
106.2117010215
 21
183.0003067970
  0
LINE
  8
Layer0$C$L0
 62
     3
 10
111.5116983099
 20
178.1003112793
 11
110.7116952582
 21
178.1003112793
  0
LINE
  8
Layer0$C$L0
 62
     3
 10
110.7116956621
 20
181.5003082881
 11
106.2117034129
 21
183.0003055160
  0
LINE
  8
Layer0$C$L0
 62
     3
 10
101.7116841901
 20
183.0003131534
 11
102.2116847209
 21
183.5003136842
  0
LINE
  8
Layer0$C$L0
 62
     3
 10
100.7116952582
 20
181.0003204346
 11
101.7116952582
 21
181.0003204346
  0
LINE
  8
Layer0$C$L0
 62
     3
 10
100.7116952582
 20
180.2003173828
 11
101.7116952582
 21
180.2003173828
  0
LINE
  8
Layer0$C$L0
 62
     3
 10
102.9906411810
 20
176.0003051758
 11
105.9117074652
 21
176.0003051758
  0
LINE
  8
Layer0$C$L0
 62
     3
 10
103.8864389105
 20
173.7003173828
 11
105.9117074652
 21
173.7003173828
  0
LINE
  8
Layer0$C$L0
 62
     3
 10
102.2116952582
 20
183.5003204346
 11
105.9117074652
 21
183.5003204346
  0
LINE
  8
Layer0$C$L0
 62
     3
 10
102.2116952582
 20
183.0003204346
 11
105.9117074652
 21
183.0003204346
  0
LINE
  8
Layer0$C$L0
 62
     3
 10
102.2116952582
 20
182.2003173828
 11
105.9117074652
 21
182.2003173828
  0
LINE
  8
Layer0$C$L0
 62
     3
 10
102.2116952582
 20
181.1003112793
 11
105.9117074652
 21
181.1003112793
  0
LINE
  8
Layer0$C$L0
 62
     3
 10
102.2116952582
 20
179.7003173828
 11
105.9117074652
 21
179.7003173828
  0
LINE
  8
Layer0$C$L0
 62
     3
 10
102.2116952582
 20
178.0003051758
 11
105.9117074652
 21
178.0003051758
  0
LINE
  8
Layer0$C$L0
 62
     3
 10
104.8990731879
 20
171.1003112793
 11
105.9117074652
 21
171.1003112793
  0
LINE
  8
Layer0$C$L0
 62
     3
 10
111.5116983099
 20
158.9003143311
 11
110.7116952582
 21
158.9003143311
  0
LINE
  8
Layer0$C$L0
 62
     3
 10
106.2116997130
 20
154.0003019177
 11
105.9116975935
 21
153.5002986632
  0
LINE
  8
Layer0$C$L0
 62
     3
 10
106.2117041668
 20
154.0003068483
 11
110.7116964161
 21
155.5003040763
  0
LINE
  8
Layer0$C$L0
 62
     3
 10
103.2243295355
 20
165.9003143311
 11
102.2116952582
 21
165.9003143311
  0
LINE
  8
Layer0$C$L0
 62
     3
 10
104.2369638129
 20
163.3003082276
 11
102.2116952582
 21
163.3003082276
  0
LINE
  8
Layer0$C$L0
 62
     3
 10
101.7116952582
 20
170.5003204346
 11
100.7116952582
 21
170.5003204346
  0
LINE
  8
Layer0$C$L0
 62
     3
 10
100.7116952582
 20
166.5003204346
 11
101.7116952582
 21
166.5003204346
  0
LINE
  8
Layer0$C$L0
 62
     3
 10
102.2117130436
 20
153.5003101592
 11
101.7117125128
 21
154.0003106900
  0
LINE
  8
Layer0$C$L0
 62
     3
 10
101.7116952582
 20
156.0003204346
 11
100.7116952582
 21
156.0003204346
  0
LINE
  8
Layer0$C$L0
 62
     3
 10
101.7116952582
 20
156.8003082276
 11
100.7116952582
 21
156.8003082276
  0
LINE
  8
Layer0$C$L0
 62
     3
 10
105.9117074652
 20
153.5003204346
 11
102.2116952582
 21
153.5003204346
  0
LINE
  8
Layer0$C$L0
 62
     3
 10
105.9117074652
 20
154.0003204346
 11
102.2116952582
 21
154.0003204346
  0
LINE
  8
Layer0$C$L0
 62
     3
 10
105.9117074652
 20
154.8003082276
 11
102.2116952582
 21
154.8003082276
  0
LINE
  8
Layer0$C$L0
 62
     3
 10
105.9117074652
 20
155.9003143311
 11
102.2116952582
 21
155.9003143311
  0
LINE
  8
Layer0$C$L0
 62
     3
 10
105.9117074652
 20
157.3003082276
 11
102.2116952582
 21
157.3003082276
  0
LINE
  8
Layer0$C$L0
 62
     3
 10
105.9117074652
 20
159.0003204346
 11
102.2116952582
 21
159.0003204346
  0
LINE
  8
Layer0$C$L0
 62
     3
 10
105.1327615424
 20
161.0003204346
 11
102.2116952582
 21
161.0003204346
  0
LINE
  8
Layer0$C$L0
 62
     3
 10
97.7116952582
 20
151.5003204346
 11
97.7116952582
 21
185.5003204346
  0
LINE
  8
Layer0$C$L0
 62
     3
 10
99.2116952582
 20
151.5003204346
 11
99.2116952582
 21
185.5003204346
  0
LINE
  8
Layer0$C$L0
 62
     3
 10
100.7116952582
 20
151.5003204346
 11
100.7116952582
 21
185.5003204346
  0
LINE
  8
Layer0$C$L0
 62
     3
 10
101.7116952582
 20
154.0003204346
 11
101.7116952582
 21
183.0003204346
  0
LINE
  8
Layer0$C$L0
 62
     3
 10
102.2116952582
 20
153.5003204346
 11
102.2116952582
 21
183.5003204346
  0
LINE
  8
Layer0$C$L0
 62
     3
 10
106.2116952582
 20
154.0002899170
 11
106.2116952582
 21
183.0003204346
  0
LINE
  8
Layer0$C$L0
 62
     3
 10
105.9117074652
 20
153.5003204346
 11
105.9117074652
 21
183.5003204346
  0
LINE
  8
Layer0$C$L0
 62
     3
 10
110.7116952582
 20
155.5003051758
 11
110.7116952582
 21
181.5003204346
  0
ARC
  8
Layer0$C$L0
 62
     3
 10
94.2116952582
 20
186.5003204346
 40
0.5000000000
 50
0.0000000000
 51
89.9999820139
  0
ARC
  8
Layer0$C$L0
 62
     3
 10
94.2116952582
 20
186.0003204346
 40
0.5000000000
 50
0.0000000000
 51
89.9999820139
  0
LINE
  8
Layer0$C$L0
 62
     3
 10
92.7116952582
 20
172.5929870606
 11
94.7116952582
 21
172.5929870606
  0
LINE
  8
Layer0$C$L0
 62
     3
 10
92.7116952582
 20
176.8645172119
 11
94.7116952582
 21
176.8645172119
  0
LINE
  8
Layer0$C$L0
 62
     3
 10
94.7116952582
 20
164.4076385498
 11
92.7116952582
 21
164.4076385498
  0
LINE
  8
Layer0$C$L0
 62
     3
 10
94.7116952582
 20
160.1361083985
 11
92.7116952582
 21
160.1361083985
  0
ARC
  8
Layer0$C$L0
 62
     3
 10
94.2116952582
 20
150.5003204346
 40
0.5000000000
 50
270.0000726276
 51
360.0000000000
  0
ARC
  8
Layer0$C$L0
 62
     3
 10
94.2116952582
 20
151.0003204346
 40
0.5000000000
 50
270.0000726276
 51
360.0000000000
  0
LINE
  8
Layer0$C$L0
 62
     3
 10
92.7116952582
 20
160.1361083985
 11
92.7116952582
 21
176.8645172119
  0
LINE
  8
Layer0$C$L0
 62
     3
 10
94.7116952582
 20
186.5003204346
 11
94.7116952582
 21
150.5003204346
  0
LINE
  8
Layer0$C$L0
 62
     3
 10
94.7116952582
 20
151.5003204346
 11
100.7116952582
 21
151.5003204346
  0
LINE
  8
Layer0$C$L0
 62
     3
 10
100.7116952582
 20
185.5003204346
 11
94.7116952582
 21
185.5003204346
  0
ARC
  8
Layer0$C$L0
 62
     3
 10
111.5116983099
 20
159.4003143311
 40
0.5000000000
 50
270.0000179861
 51
360.0000000000
  0
ARC
  8
Layer0$C$L0
 62
     3
 10
111.5116983099
 20
177.6003112793
 40
0.5000000000
 50
0.0000000000
 51
89.9999820139
  0
ARC
  8
Layer0$C$L0
 62
     3
 10
111.5116983099
 20
224.4002990723
 40
0.5000000000
 50
270.0000179861
 51
360.0000000000
  0
LINE
  8
Layer0$C$L0
 62
     3
 10
82.7116952582
 20
232.4001922608
 11
82.7116952582
 21
232.3503112793
  0
LINE
  8
Layer0$C$L0
 62
     3
 10
82.7116952582
 20
234.6502685547
 11
82.7116952582
 21
234.6003875733
  0
LINE
  8
Layer0$C$L0
 62
     3
 10
80.2116952582
 20
234.6003875733
 11
80.2116952582
 21
232.4001922608
  0
LINE
  8
Layer0$C$L0
 62
     3
 10
80.2116342230
 20
234.6002960205
 11
80.2116342230
 21
232.4002532959
  0
LINE
  8
Layer0$C$L0
 62
     3
 10
80.2116342230
 20
234.6503143311
 11
80.2116342230
 21
232.3502960205
  0
LINE
  8
Layer0$C$L0
 62
     3
 10
80.8117013617
 20
232.4001922608
 11
80.8117013617
 21
232.3503112793
  0
LINE
  8
Layer0$C$L0
 62
     3
 10
80.8117013617
 20
234.6502685547
 11
80.8117013617
 21
234.6003875733
  0
ARC
  8
Layer0$C$L0
 62
     3
 10
79.9116159125
 20
219.1002960205
 40
0.3000000119
 50
270.0000179861
 51
360.0000000000
  0
LINE
  8
Layer0$C$L0
 62
     3
 10
80.2116952582
 20
229.3000946045
 11
80.2116952582
 21
218.7002410889
  0
LINE
  8
Layer0$C$L0
 62
     3
 10
80.2116342230
 20
219.1002960205
 11
80.2116342230
 21
229.3502960205
  0
LINE
  8
Layer0$C$L0
 62
     3
 10
68.1883187933
 20
229.3003082276
 11
68.1883187933
 21
237.7003021240
  0
LINE
  8
Layer0$C$L0
 62
     3
 10
67.2116342230
 20
229.3003082276
 11
67.2116342230
 21
237.7003021240
  0
ARC
  8
Layer0$C$L0
 62
     3
 10
62.4953256293
 20
238.0003204346
 40
0.3000000119
 50
180.0000359722
 51
270.0000179861
  0
LINE
  8
Layer0$C$L0
 62
     3
 10
65.1216378851
 20
229.3003082276
 11
65.1216378851
 21
232.4003143311
  0
ARC
  8
Layer0$C$L0
 62
     3
 10
62.4953256293
 20
229.0002899170
 40
0.3000000119
 50
89.9999820139
 51
179.9999640278
  0
LINE
  8
Layer0$C$L0
 62
     3
 10
62.7116342230
 20
229.3003082276
 11
62.7116342230
 21
232.4003143311
  0
LINE
  8
Layer0$C$L0
 62
     3
 10
62.7116342230
 20
237.7003021240
 11
62.7116342230
 21
234.6002960205
  0
LINE
  8
Layer0$C$L0
 62
     3
 10
65.1216378851
 20
237.7003021240
 11
65.1216378851
 21
234.6002960205
  0
LINE
  8
Layer0$C$L0
 62
     3
 10
61.8774036050
 20
224.4505446664
 11
61.8366375413
 21
224.8914882578
  0
LINE
  8
Layer0$C$L0
 62
     3
 10
61.8910775770
 20
224.0000415797
 11
61.8774036050
 21
224.4505446664
  0
LINE
  8
Layer0$C$L0
 62
     3
 10
61.8773691413
 20
223.5495437656
 11
61.8910775770
 21
224.0000415797
  0
ARC
  8
Layer0$C$L0
 62
     3
 10
62.4953256293
 20
219.1002960205
 40
0.3000000119
 50
179.9999640278
 51
270.0000006832
  0
ARC
  8
Layer0$C$L0
 62
     3
 10
63.3854318304
 20
219.6002960205
 40
0.3000000119
 50
89.9999820139
 51
179.9999640278
  0
LINE
  8
Layer0$C$L0
 62
     3
 10
63.0854440375
 20
218.8003082276
 11
63.0854440375
 21
219.6002960205
  0
LINE
  8
Layer0$C$L0
 62
     3
 10
61.8365693458
 20
223.1086158798
 11
61.8773691413
 21
223.5495437656
  0
LINE
  8
Layer0$C$L0
 62
     3
 10
65.9116159125
 20
219.9003143311
 11
63.3854318304
 21
219.9003143311
  0
LINE
  8
Layer0$C$L0
 62
     3
 10
65.9116159125
 20
219.9003143311
 11
65.9116159125
 21
229.3003082276
  0
LINE
  8
Layer0$C$L0
 62
     3
 10
62.1953378363
 20
229.0002899170
 11
62.1953378363
 21
219.1002960205
  0
LINE
  8
Layer0$C$L0
 62
     3
 10
60.0836093828
 20
240.2399367453
 11
60.2653782008
 21
240.1355937119
  0
LINE
  8
Layer0$C$L0
 62
     3
 10
61.1085641911
 20
240.1500790993
 11
61.2755064637
 21
240.3574963146
  0
LINE
  8
Layer0$C$L0
 62
     3
 10
60.5583681744
 20
239.9020382308
 11
60.7461477598
 21
239.9199066265
  0
LINE
  8
Layer0$C$L0
 62
     3
 10
60.4521705134
 20
240.0931073211
 11
61.0105778057
 21
240.0605313168
  0
LINE
  8
Layer0$C$L0
 62
     3
 10
60.2653782008
 20
240.1355937119
 11
60.4518897572
 21
240.0931760474
  0
LINE
  8
Layer0$C$L0
 62
     3
 10
60.3715016633
 20
239.9499504055
 11
60.5583681744
 21
239.9020382308
  0
LINE
  8
Layer0$C$L0
 62
     3
 10
60.1895156461
 20
240.0626259128
 11
60.3715016633
 21
239.9499504055
  0
LINE
  8
Layer0$C$L0
 62
     3
 10
60.2116342230
 20
238.9003143311
 11
60.2116342230
 21
238.0003204346
  0
ARC
  8
Layer0$C$L0
 62
     3
 10
60.5116220160
 20
238.0003204346
 40
0.3000000119
 50
180.0000359722
 51
270.0000179861
  0
LINE
  8
Layer0$C$L0
 62
     3
 10
60.9308536141
 20
240.0031762234
 11
61.1085641911
 21
240.1500790993
  0
LINE
  8
Layer0$C$L0
 62
     3
 10
60.7461477598
 20
239.9199066265
 11
60.9308536141
 21
240.0031762234
  0
ARC
  8
Layer0$C$L0
 62
     3
 10
59.6116281195
 20
239.2003021240
 40
0.3000000119
 50
180.0000359722
 51
270.0000179861
  0
LINE
  8
Layer0$C$L0
 62
     3
 10
59.8554546423
 20
240.4713737138
 11
60.0162739232
 21
240.2376725047
  0
LINE
  8
Layer0$C$L0
 62
     3
 10
60.0162739232
 20
240.2376725047
 11
60.1895156461
 21
240.0626259128
  0
LINE
  8
Layer0$C$L0
 62
     3
 10
59.9105125090
 20
240.4039496162
 11
60.0836093828
 21
240.2399367453
  0
ARC
  8
Layer0$C$L0
 62
     3
 10
60.5116220160
 20
229.0002899170
 40
0.3000000119
 50
89.9999820139
 51
179.9999640278
  0
LINE
  8
Layer0$C$L0
 62
     3
 10
60.7116342230
 20
234.3594512940
 11
60.7116342230
 21
233.6961822510
  0
LINE
  8
Layer0$C$L0
 62
     3
 10
60.7116342230
 20
232.6411590576
 11
60.7116342230
 21
233.3044281006
  0
LINE
  8
Layer0$C$L0
 62
     3
 10
60.5324225329
 20
224.5121240740
 11
60.5983833845
 21
224.5005950928
  0
LINE
  8
Layer0$C$L0
 62
     3
 10
60.5983833845
 20
223.5002899170
 11
60.5324225329
 21
223.4887609358
  0
LINE
  8
Layer0$C$L0
 62
     3
 10
60.7461459506
 20
227.0807037251
 11
60.5583686747
 21
227.0985721209
  0
LINE
  8
Layer0$C$L0
 62
     3
 10
60.4521738040
 20
226.9074810630
 11
61.0105810963
 21
226.9400570673
  0
LINE
  8
Layer0$C$L0
 62
     3
 10
60.2665286973
 20
225.1961846441
 11
60.2601279102
 21
225.0978504962
  0
LINE
  8
Layer0$C$L0
 62
     3
 10
60.2734778332
 20
225.2943343167
 11
60.2665286973
 21
225.1961846441
  0
LINE
  8
Layer0$C$L0
 62
     3
 10
60.2809742460
 20
225.3922843736
 11
60.2734778332
 21
225.2943343167
  0
LINE
  8
Layer0$C$L0
 62
     3
 10
60.2890167791
 20
225.4900197054
 11
60.2809742460
 21
225.3922843736
  0
LINE
  8
Layer0$C$L0
 62
     3
 10
60.2976041922
 20
225.5875252358
 11
60.2890167791
 21
225.4900197054
  0
LINE
  8
Layer0$C$L0
 62
     3
 10
60.3067351604
 20
225.6847859237
 11
60.2976041922
 21
225.5875252358
  0
LINE
  8
Layer0$C$L0
 62
     3
 10
60.3164082753
 20
225.7817867661
 11
60.3067351604
 21
225.6847859237
  0
LINE
  8
Layer0$C$L0
 62
     3
 10
60.3266220446
 20
225.8785127998
 11
60.3164082753
 21
225.7817867661
  0
LINE
  8
Layer0$C$L0
 62
     3
 10
60.0966286669
 20
225.8859902738
 11
60.0397645334
 21
225.8654151283
  0
LINE
  8
Layer0$C$L0
 62
     3
 10
60.1539800569
 20
225.8975551364
 11
60.0966286669
 21
225.8859902738
  0
LINE
  8
Layer0$C$L0
 62
     3
 10
60.2115446660
 20
225.9000544567
 11
60.1539800569
 21
225.8975551364
  0
LINE
  8
Layer0$C$L0
 62
     3
 10
60.2690474380
 20
225.8934762925
 11
60.2115446660
 21
225.9000544567
  0
LINE
  8
Layer0$C$L0
 62
     3
 10
60.3262136123
 20
225.8778520757
 11
60.2690474380
 21
225.8934762925
  0
LINE
  8
Layer0$C$L0
 62
     3
 10
60.4689965229
 20
224.5462678920
 11
60.5324225329
 21
224.5121240740
  0
LINE
  8
Layer0$C$L0
 62
     3
 10
60.4105427796
 20
224.6017144194
 11
60.4689965229
 21
224.5462678920
  0
LINE
  8
Layer0$C$L0
 62
     3
 10
60.3593076465
 20
224.6763328784
 11
60.4105427796
 21
224.6017144194
  0
LINE
  8
Layer0$C$L0
 62
     3
 10
60.3172600604
 20
224.7672557243
 11
60.3593076465
 21
224.6763328784
  0
LINE
  8
Layer0$C$L0
 62
     3
 10
60.2860158858
 20
224.8709888447
 11
60.3172600604
 21
224.7672557243
  0
LINE
  8
Layer0$C$L0
 62
     3
 10
60.2667758183
 20
224.9835458355
 11
60.2860158858
 21
224.8709888447
  0
LINE
  8
Layer0$C$L0
 62
     3
 10
60.2602792425
 20
225.1006011963
 11
60.2667758183
 21
224.9835458355
  0
LINE
  8
Layer0$C$L0
 62
     3
 10
60.3593076465
 20
223.3245521315
 11
60.3172600604
 21
223.2336292855
  0
LINE
  8
Layer0$C$L0
 62
     3
 10
60.4105427796
 20
223.3991705904
 11
60.3593076465
 21
223.3245521315
  0
LINE
  8
Layer0$C$L0
 62
     3
 10
60.4689965229
 20
223.4546171179
 11
60.4105427796
 21
223.3991705904
  0
LINE
  8
Layer0$C$L0
 62
     3
 10
60.5324225329
 20
223.4887609358
 11
60.4689965229
 21
223.4546171179
  0
LINE
  8
Layer0$C$L0
 62
     3
 10
60.2654082631
 20
226.8650166397
 11
60.0836383501
 21
226.7606736063
  0
LINE
  8
Layer0$C$L0
 62
     3
 10
60.4519202646
 20
226.9074343042
 11
60.2654082631
 21
226.8650166397
  0
LINE
  8
Layer0$C$L0
 62
     3
 10
60.3715041386
 20
227.0506599461
 11
60.1895197198
 21
226.9379844389
  0
LINE
  8
Layer0$C$L0
 62
     3
 10
60.5583686747
 20
227.0985721209
 11
60.3715041386
 21
227.0506599461
  0
LINE
  8
Layer0$C$L0
 62
     3
 10
61.1085569612
 20
226.8505312523
 11
60.9308492097
 21
226.9974341282
  0
LINE
  8
Layer0$C$L0
 62
     3
 10
61.2754962377
 20
226.6431140370
 11
61.1085569612
 21
226.8505312523
  0
LINE
  8
Layer0$C$L0
 62
     3
 10
61.4281227009
 20
226.3795862200
 11
61.2754962377
 21
226.6431140370
  0
LINE
  8
Layer0$C$L0
 62
     3
 10
61.5631958918
 20
226.0655428407
 11
61.4281227009
 21
226.3795862200
  0
LINE
  8
Layer0$C$L0
 62
     3
 10
61.6778480306
 20
225.7076514492
 11
61.5631958918
 21
226.0655428407
  0
LINE
  8
Layer0$C$L0
 62
     3
 10
61.7696449029
 20
225.3135105465
 11
61.6778480306
 21
225.7076514492
  0
LINE
  8
Layer0$C$L0
 62
     3
 10
61.0149863368
 20
224.3769748826
 11
61.0021988681
 21
224.4999756422
  0
LINE
  8
Layer0$C$L0
 62
     3
 10
61.0241599704
 20
224.2523066737
 11
61.0149863368
 21
224.3769748826
  0
LINE
  8
Layer0$C$L0
 62
     3
 10
61.0296791604
 20
224.1265228771
 11
61.0241599704
 21
224.2523066737
  0
LINE
  8
Layer0$C$L0
 62
     3
 10
61.0315194755
 20
224.0001802925
 11
61.0296791604
 21
224.1265228771
  0
LINE
  8
Layer0$C$L0
 62
     3
 10
61.0296727692
 20
223.8738381932
 11
61.0315194755
 21
224.0001802925
  0
LINE
  8
Layer0$C$L0
 62
     3
 10
61.0241472162
 20
223.7480558502
 11
61.0296727692
 21
223.8738381932
  0
LINE
  8
Layer0$C$L0
 62
     3
 10
61.0149672762
 20
223.6233900570
 11
61.0241472162
 21
223.7480558502
  0
LINE
  8
Layer0$C$L0
 62
     3
 10
61.0021735854
 20
223.5003926642
 11
61.0149672762
 21
223.6233900570
  0
LINE
  8
Layer0$C$L0
 62
     3
 10
61.1920022072
 20
226.4199173038
 11
61.0375394689
 21
226.6208423200
  0
LINE
  8
Layer0$C$L0
 62
     3
 10
61.3327068518
 20
226.1719214448
 11
61.1920022072
 21
226.4199173038
  0
LINE
  8
Layer0$C$L0
 62
     3
 10
61.4569161688
 20
225.8816791942
 11
61.3327068518
 21
226.1719214448
  0
LINE
  8
Layer0$C$L0
 62
     3
 10
61.5622138203
 20
225.5548368542
 11
61.4569161688
 21
225.8816791942
  0
LINE
  8
Layer0$C$L0
 62
     3
 10
61.6465513714
 20
225.1977527362
 11
61.5622138203
 21
225.5548368542
  0
LINE
  8
Layer0$C$L0
 62
     3
 10
61.7082881400
 20
224.8173734677
 11
61.6465513714
 21
225.1977527362
  0
LINE
  8
Layer0$C$L0
 62
     3
 10
61.7462231139
 20
224.4210988545
 11
61.7082881400
 21
224.8173734677
  0
LINE
  8
Layer0$C$L0
 62
     3
 10
61.7596183153
 20
224.0166379265
 11
61.7462231139
 21
224.4210988545
  0
LINE
  8
Layer0$C$L0
 62
     3
 10
61.7482131574
 20
223.6118589684
 11
61.7596183153
 21
224.0166379265
  0
LINE
  8
Layer0$C$L0
 62
     3
 10
60.9308492097
 20
226.9974341282
 11
60.7461459506
 21
227.0807037251
  0
LINE
  8
Layer0$C$L0
 62
     3
 10
61.0021920843
 20
223.5002899170
 11
60.5983834906
 21
223.5002899170
  0
LINE
  8
Layer0$C$L0
 62
     3
 10
61.0021615668
 20
224.5002899170
 11
60.5983834906
 21
224.5002899170
  0
LINE
  8
Layer0$C$L0
 62
     3
 10
59.3822200038
 20
223.6236060088
 11
59.3950074156
 21
223.5006054520
  0
LINE
  8
Layer0$C$L0
 62
     3
 10
59.3730464144
 20
223.7482740041
 11
59.3822200038
 21
223.6236060088
  0
LINE
  8
Layer0$C$L0
 62
     3
 10
59.3675272557
 20
223.8740575793
 11
59.3730464144
 21
223.7482740041
  0
LINE
  8
Layer0$C$L0
 62
     3
 10
59.3656869588
 20
224.0003999379
 11
59.3675272557
 21
223.8740575793
  0
LINE
  8
Layer0$C$L0
 62
     3
 10
59.3675336700
 20
224.1267418094
 11
59.3656869588
 21
224.0003999379
  0
LINE
  8
Layer0$C$L0
 62
     3
 10
59.3730592147
 20
224.2525239258
 11
59.3675336700
 21
224.1267418094
  0
LINE
  8
Layer0$C$L0
 62
     3
 10
59.3822391333
 20
224.3771894968
 11
59.3730592147
 21
224.2525239258
  0
LINE
  8
Layer0$C$L0
 62
     3
 10
59.3950327897
 20
224.5001866745
 11
59.3822391333
 21
224.3771894968
  0
LINE
  8
Layer0$C$L0
 62
     3
 10
59.8186198948
 20
224.9886235780
 11
59.8219157778
 21
225.1065129831
  0
LINE
  8
Layer0$C$L0
 62
     3
 10
59.8081394839
 20
224.8750913901
 11
59.8186198948
 21
224.9886235780
  0
LINE
  8
Layer0$C$L0
 62
     3
 10
59.7908823535
 20
224.7703341270
 11
59.8081394839
 21
224.8750913901
  0
LINE
  8
Layer0$C$L0
 62
     3
 10
59.7675200045
 20
224.6784280511
 11
59.7908823535
 21
224.7703341270
  0
LINE
  8
Layer0$C$L0
 62
     3
 10
59.7389615009
 20
224.6029493656
 11
59.7675200045
 21
224.6784280511
  0
LINE
  8
Layer0$C$L0
 62
     3
 10
59.7063180971
 20
224.5468350596
 11
59.7389615009
 21
224.6029493656
  0
LINE
  8
Layer0$C$L0
 62
     3
 10
59.6708599967
 20
224.5122686247
 11
59.7063180971
 21
224.5468350596
  0
LINE
  8
Layer0$C$L0
 62
     3
 10
59.6339669277
 20
224.5005950928
 11
59.6708599967
 21
224.5122686247
  0
LINE
  8
Layer0$C$L0
 62
     3
 10
59.8272424321
 20
225.1829110610
 11
59.8219434859
 21
225.1011354445
  0
LINE
  8
Layer0$C$L0
 62
     3
 10
59.8329206292
 20
225.2645605382
 11
59.8272424321
 21
225.1829110610
  0
LINE
  8
Layer0$C$L0
 62
     3
 10
59.8389774716
 20
225.3460751672
 11
59.8329206292
 21
225.2645605382
  0
LINE
  8
Layer0$C$L0
 62
     3
 10
59.8454123132
 20
225.4274462536
 11
59.8389774716
 21
225.3460751672
  0
LINE
  8
Layer0$C$L0
 62
     3
 10
59.8522244677
 20
225.5086651183
 11
59.8454123132
 21
225.4274462536
  0
LINE
  8
Layer0$C$L0
 62
     3
 10
59.8594132085
 20
225.5897230985
 11
59.8522244677
 21
225.5086651183
  0
LINE
  8
Layer0$C$L0
 62
     3
 10
59.8669777689
 20
225.6706115484
 11
59.8594132085
 21
225.5897230985
  0
LINE
  8
Layer0$C$L0
 62
     3
 10
59.8749173420
 20
225.7513218404
 11
59.8669777689
 21
225.6706115484
  0
LINE
  8
Layer0$C$L0
 62
     3
 10
59.9285812452
 20
225.7976698221
 11
59.8747933484
 21
225.7508233630
  0
LINE
  8
Layer0$C$L0
 62
     3
 10
59.9836593652
 20
225.8359280125
 11
59.9285812452
 21
225.7976698221
  0
LINE
  8
Layer0$C$L0
 62
     3
 10
59.6706931520
 20
223.4890469720
 11
59.6339974453
 21
223.5005950928
  0
LINE
  8
Layer0$C$L0
 62
     3
 10
59.7059757286
 20
223.4548470631
 11
59.6706931520
 21
223.4890469720
  0
LINE
  8
Layer0$C$L0
 62
     3
 10
59.7384870265
 20
223.3993118394
 11
59.7059757286
 21
223.4548470631
  0
LINE
  8
Layer0$C$L0
 62
     3
 10
59.7669755730
 20
223.3245790440
 11
59.7384870265
 21
223.3993118394
  0
LINE
  8
Layer0$C$L0
 62
     3
 10
59.7903447452
 20
223.2335254014
 11
59.7669755730
 21
223.3245790440
  0
LINE
  8
Layer0$C$L0
 62
     3
 10
59.2133882415
 20
223.7860516343
 11
59.2408984836
 21
223.3631161279
  0
LINE
  8
Layer0$C$L0
 62
     3
 10
59.2133610801
 20
224.2136182228
 11
59.2133882415
 21
223.7860516343
  0
LINE
  8
Layer0$C$L0
 62
     3
 10
59.2408175863
 20
224.6365733997
 11
59.2133610801
 21
224.2136182228
  0
LINE
  8
Layer0$C$L0
 62
     3
 10
59.2951642467
 20
225.0457743539
 11
59.2408175863
 21
224.6365733997
  0
LINE
  8
Layer0$C$L0
 62
     3
 10
59.3752262766
 20
225.4323755925
 11
59.2951642467
 21
225.0457743539
  0
LINE
  8
Layer0$C$L0
 62
     3
 10
59.4792730149
 20
225.7880201492
 11
59.3752262766
 21
225.4323755925
  0
LINE
  8
Layer0$C$L0
 62
     3
 10
59.6050553354
 20
226.1050202331
 11
59.4792730149
 21
225.7880201492
  0
LINE
  8
Layer0$C$L0
 62
     3
 10
59.7498542642
 20
226.3765234114
 11
59.6050553354
 21
226.1050202331
  0
LINE
  8
Layer0$C$L0
 62
     3
 10
59.9105397551
 20
226.5966607354
 11
59.7498542642
 21
226.3765234114
  0
LINE
  8
Layer0$C$L0
 62
     3
 10
60.0162791850
 20
226.7629378470
 11
59.8554606564
 21
226.5292366378
  0
LINE
  8
Layer0$C$L0
 62
     3
 10
59.6339669867
 20
224.5002899170
 11
59.3950448675
 21
224.5002899170
  0
LINE
  8
Layer0$C$L0
 62
     3
 10
59.6342416449
 20
223.5002899170
 11
59.3950448675
 21
223.5002899170
  0
ARC
  8
Layer0$C$L0
 62
     3
 10
54.7116342230
 20
224.0002899170
 40
5.0000000000
 50
19.2051873799
 51
23.0739158089
  0
ARC
  8
Layer0$C$L0
 62
     3
 10
59.6116281195
 20
227.8003082276
 40
0.3000000119
 50
89.9999820139
 51
179.9999640278
  0
LINE
  8
Layer0$C$L0
 62
     3
 10
59.3116403265
 20
227.8003082276
 11
59.3116403265
 21
225.9598846436
  0
LINE
  8
Layer0$C$L0
 62
     3
 10
60.0397645334
 20
225.8654151283
 11
59.9836593652
 21
225.8359280125
  0
LINE
  8
Layer0$C$L0
 62
     3
 10
60.0836383501
 20
226.7606736063
 11
59.9105397551
 21
226.5966607354
  0
LINE
  8
Layer0$C$L0
 62
     3
 10
60.1895197198
 20
226.9379844389
 11
60.0162791850
 21
226.7629378470
  0
LINE
  8
Layer0$C$L0
 62
     3
 10
60.2667758183
 20
223.0173391744
 11
60.2602792425
 21
222.9002838135
  0
LINE
  8
Layer0$C$L0
 62
     3
 10
61.6523673998
 20
222.8326978460
 11
61.7122295132
 21
223.2146364515
  0
LINE
  8
Layer0$C$L0
 62
     3
 10
60.5581316545
 20
220.9020243145
 11
60.7459102945
 21
220.9198203964
  0
LINE
  8
Layer0$C$L0
 62
     3
 10
61.0106476393
 20
221.0605359590
 11
60.4521794154
 21
221.0931155179
  0
LINE
  8
Layer0$C$L0
 62
     3
 10
60.3712707864
 20
220.9500084506
 11
60.5581316545
 21
220.9020243145
  0
LINE
  8
Layer0$C$L0
 62
     3
 10
60.1892949901
 20
221.0627540390
 11
60.3712707864
 21
220.9500084506
  0
LINE
  8
Layer0$C$L0
 62
     3
 10
60.3163146703
 20
222.2196389562
 11
60.3265173532
 21
222.1229657909
  0
LINE
  8
Layer0$C$L0
 62
     3
 10
60.3066520370
 20
222.3165864849
 11
60.3163146703
 21
222.2196389562
  0
LINE
  8
Layer0$C$L0
 62
     3
 10
60.2975309422
 20
222.4137934395
 11
60.3066520370
 21
222.3165864849
  0
LINE
  8
Layer0$C$L0
 62
     3
 10
60.2889527912
 20
222.5112448422
 11
60.2975309422
 21
222.4137934395
  0
LINE
  8
Layer0$C$L0
 62
     3
 10
60.2809189058
 20
222.6089256776
 11
60.2889527912
 21
222.5112448422
  0
LINE
  8
Layer0$C$L0
 62
     3
 10
60.2734305239
 20
222.7068208952
 11
60.2809189058
 21
222.6089256776
  0
LINE
  8
Layer0$C$L0
 62
     3
 10
60.2664887992
 20
222.8049154110
 11
60.2734305239
 21
222.7068208952
  0
LINE
  8
Layer0$C$L0
 62
     3
 10
60.2600948014
 20
222.9031941107
 11
60.2664887992
 21
222.8049154110
  0
LINE
  8
Layer0$C$L0
 62
     3
 10
60.2692406573
 20
222.1071410046
 11
60.3264333946
 21
222.1228055565
  0
LINE
  8
Layer0$C$L0
 62
     3
 10
60.2117100651
 20
222.1005312777
 11
60.2692406573
 21
222.1071410046
  0
LINE
  8
Layer0$C$L0
 62
     3
 10
60.1541167837
 20
222.1030079898
 11
60.2117100651
 21
222.1005312777
  0
LINE
  8
Layer0$C$L0
 62
     3
 10
60.0967362783
 20
222.1145592949
 11
60.1541167837
 21
222.1030079898
  0
LINE
  8
Layer0$C$L0
 62
     3
 10
60.0398429968
 20
222.1351299436
 11
60.0967362783
 21
222.1145592949
  0
LINE
  8
Layer0$C$L0
 62
     3
 10
60.2657722409
 20
221.1354063137
 11
60.4522896232
 21
221.0931221422
  0
LINE
  8
Layer0$C$L0
 62
     3
 10
60.0839890793
 20
221.2396192451
 11
60.2657722409
 21
221.1354063137
  0
LINE
  8
Layer0$C$L0
 62
     3
 10
61.6777174003
 20
222.2925138507
 11
61.7695444233
 21
222.6866193964
  0
LINE
  8
Layer0$C$L0
 62
     3
 10
61.5630378843
 20
221.9346666175
 11
61.6777174003
 21
222.2925138507
  0
LINE
  8
Layer0$C$L0
 62
     3
 10
61.4279406708
 20
221.6206752598
 11
61.5630378843
 21
221.9346666175
  0
LINE
  8
Layer0$C$L0
 62
     3
 10
61.2752940498
 20
221.3572062237
 11
61.4279406708
 21
221.6206752598
  0
LINE
  8
Layer0$C$L0
 62
     3
 10
61.1083389081
 20
221.1498533002
 11
61.2752940498
 21
221.3572062237
  0
LINE
  8
Layer0$C$L0
 62
     3
 10
60.9306199211
 20
221.0030188622
 11
61.1083389081
 21
221.1498533002
  0
LINE
  8
Layer0$C$L0
 62
     3
 10
60.7459102945
 20
220.9198203964
 11
60.9306199211
 21
221.0030188622
  0
LINE
  8
Layer0$C$L0
 62
     3
 10
61.5697913603
 20
222.4734732927
 11
61.6523673998
 21
222.8326978460
  0
LINE
  8
Layer0$C$L0
 62
     3
 10
61.4661078087
 20
222.1439510587
 11
61.5697913603
 21
222.4734732927
  0
LINE
  8
Layer0$C$L0
 62
     3
 10
61.3433337798
 20
221.8505415894
 11
61.4661078087
 21
222.1439510587
  0
LINE
  8
Layer0$C$L0
 62
     3
 10
61.2038576895
 20
221.5989528013
 11
61.3433337798
 21
221.8505415894
  0
LINE
  8
Layer0$C$L0
 62
     3
 10
60.2860158858
 20
223.1298961651
 11
60.2667758183
 21
223.0173391744
  0
LINE
  8
Layer0$C$L0
 62
     3
 10
59.8219245686
 20
222.8998018235
 11
59.8183584147
 21
223.0169687836
  0
LINE
  8
Layer0$C$L0
 62
     3
 10
59.8552672010
 20
221.4716304812
 11
60.0160678489
 21
221.2378673438
  0
LINE
  8
Layer0$C$L0
 62
     3
 10
59.8669252035
 20
222.3305826778
 11
59.8748549921
 21
222.2499428849
  0
LINE
  8
Layer0$C$L0
 62
     3
 10
59.8593697648
 20
222.4114002456
 11
59.8669252035
 21
222.3305826778
  0
LINE
  8
Layer0$C$L0
 62
     3
 10
59.8521894803
 20
222.4923869836
 11
59.8593697648
 21
222.4114002456
  0
LINE
  8
Layer0$C$L0
 62
     3
 10
59.8453851145
 20
222.5735342691
 11
59.8521894803
 21
222.4923869836
  0
LINE
  8
Layer0$C$L0
 62
     3
 10
59.8389573920
 20
222.6548334622
 11
59.8453851145
 21
222.5735342691
  0
LINE
  8
Layer0$C$L0
 62
     3
 10
59.8329069970
 20
222.7362759071
 11
59.8389573920
 21
222.6548334622
  0
LINE
  8
Layer0$C$L0
 62
     3
 10
59.8272345739
 20
222.8178529324
 11
59.8329069970
 21
222.7362759071
  0
LINE
  8
Layer0$C$L0
 62
     3
 10
59.8219407264
 20
222.8995558527
 11
59.8272345739
 21
222.8178529324
  0
LINE
  8
Layer0$C$L0
 62
     3
 10
59.9286029429
 20
222.2028930508
 11
59.9837090565
 21
222.1646215478
  0
LINE
  8
Layer0$C$L0
 62
     3
 10
59.8747882254
 20
222.2497614021
 11
59.9286029429
 21
222.2028930508
  0
LINE
  8
Layer0$C$L0
 62
     3
 10
59.7501562016
 20
221.6235305252
 11
59.9108696541
 21
221.4035082177
  0
LINE
  8
Layer0$C$L0
 62
     3
 10
59.6053227845
 20
221.8949300551
 11
59.7501562016
 21
221.6235305252
  0
LINE
  8
Layer0$C$L0
 62
     3
 10
59.4795001945
 20
222.2118400991
 11
59.6053227845
 21
221.8949300551
  0
LINE
  8
Layer0$C$L0
 62
     3
 10
59.3754082756
 20
222.5674101709
 11
59.4795001945
 21
222.2118400991
  0
LINE
  8
Layer0$C$L0
 62
     3
 10
59.2952971311
 20
222.9539540895
 11
59.3754082756
 21
222.5674101709
  0
ARC
  8
Layer0$C$L0
 62
     3
 10
54.7116342230
 20
224.0002899170
 40
5.0000000000
 50
336.9260807760
 51
340.7952668276
  0
ARC
  8
Layer0$C$L0
 62
     3
 10
59.6116281195
 20
219.1002960205
 40
0.3000000119
 50
179.9999640278
 51
270.0000006832
  0
LINE
  8
Layer0$C$L0
 62
     3
 10
59.3116403265
 20
222.0406951905
 11
59.3116403265
 21
219.1002960205
  0
LINE
  8
Layer0$C$L0
 62
     3
 10
59.8183584147
 20
223.0169687836
 11
59.8076949827
 21
223.1296558819
  0
LINE
  8
Layer0$C$L0
 62
     3
 10
60.0160678489
 20
221.2378673438
 11
60.1892949901
 21
221.0627540390
  0
LINE
  8
Layer0$C$L0
 62
     3
 10
59.9837090565
 20
222.1646215478
 11
60.0398429968
 21
222.1351299436
  0
LINE
  8
Layer0$C$L0
 62
     3
 10
59.9108696541
 20
221.4035082177
 11
60.0839890793
 21
221.2396192451
  0
LINE
  8
Layer0$C$L0
 62
     3
 10
59.2408984836
 20
223.3631161279
 11
59.2952971311
 21
222.9539540895
  0
LINE
  8
Layer0$C$L0
 62
     3
 10
59.8076949827
 20
223.1296558819
 11
59.7903447452
 21
223.2335254014
  0
LINE
  8
Layer0$C$L0
 62
     3
 10
60.3172600604
 20
223.2336292855
 11
60.2860158858
 21
223.1298961651
  0
LINE
  8
Layer0$C$L0
 62
     3
 10
61.7122295132
 20
223.2146364515
 11
61.7482131574
 21
223.6118589684
  0
LINE
  8
Layer0$C$L0
 62
     3
 10
60.2116342230
 20
228.1002960205
 11
60.2116342230
 21
229.0002899170
  0
LINE
  8
Layer0$C$L0
 62
     3
 10
67.2116342230
 20
232.4003143311
 11
60.2116342230
 21
232.4003143311
  0
LINE
  8
Layer0$C$L0
 62
     3
 10
61.7695444233
 20
222.6866193964
 11
61.8365693458
 21
223.1086158798
  0
LINE
  8
Layer0$C$L0
 62
     3
 10
62.7816110297
 20
219.1002960205
 11
59.6343331976
 21
219.1002960205
  0
LINE
  8
Layer0$C$L0
 62
     3
 10
65.5484567328
 20
229.0002899170
 11
60.4643808050
 21
229.0002899170
  0
LINE
  8
Layer0$C$L0
 62
     3
 10
61.8366375413
 20
224.8914882578
 11
61.7696449029
 21
225.3135105465
  0
LINE
  8
Layer0$C$L0
 62
     3
 10
67.2116342230
 20
234.6002960205
 11
60.2116342230
 21
234.6002960205
  0
LINE
  8
Layer0$C$L0
 62
     3
 10
65.5484567328
 20
238.0003204346
 11
60.4643808050
 21
238.0003204346
  0
LINE
  8
Layer0$C$L0
 62
     3
 10
75.2116342230
 20
229.3003082276
 11
60.2116342230
 21
229.3003082276
  0
LINE
  8
Layer0$C$L0
 62
     3
 10
75.2116342230
 20
237.7003021240
 11
60.2116342230
 21
237.7003021240
  0
ARC
  8
Layer0$C$L0
 62
     3
 10
79.7116952582
 20
181.1878509522
 40
0.5000000000
 50
0.0000000000
 51
63.9999653533
  0
ARC
  8
Layer0$C$L0
 62
     3
 10
79.7116952582
 20
155.8127593994
 40
0.5000000000
 50
296.0000346467
 51
360.0000000000
  0
LINE
  8
Layer0$C$L0
 62
     3
 10
80.2116952582
 20
150.0003509522
 11
80.2116952582
 21
187.0001678467
  0
LINE
  8
Layer0$C$L0
 62
     3
 10
80.2117257758
 20
150.0001678467
 11
80.2117257758
 21
187.0002288819
  0
LINE
  8
Layer0$C$L0
 62
     3
 10
79.9117074652
 20
156.1188201905
 11
79.9117074652
 21
180.9363250733
  0
LINE
  8
Layer0$C$L0
 62
     3
 10
80.2116952582
 20
150.0003204346
 11
80.2116952582
 21
187.0002899170
  0
ARC
  8
Layer0$C$L0
 62
     3
 10
62.5078378363
 20
188.7003021240
 40
0.5000000000
 50
89.9999820139
 51
154.0000020087
  0
LINE
  8
Layer0$C$L0
 62
     3
 10
62.5078378363
 20
189.2003021240
 11
68.3681283636
 21
189.2003021240
  0
LINE
  8
Layer0$C$L0
 62
     3
 10
63.0855050726
 20
188.9003143311
 11
68.0779061957
 21
188.9003143311
  0
LINE
  8
Layer0$C$L0
 62
     3
 10
63.8117013617
 20
174.5002899170
 11
65.8117013617
 21
174.5002899170
  0
ARC
  8
Layer0$C$L0
 62
     3
 10
67.1832833929
 20
182.5462799073
 40
8.0000000000
 50
139.6839255084
 51
150.4167208456
  0
LINE
  8
Layer0$C$L0
 62
     3
 10
60.2261488229
 20
186.4957960645
 11
60.7513870846
 21
186.2396202646
  0
LINE
  8
Layer0$C$L0
 62
     3
 10
60.2116647406
 20
185.3902585002
 11
60.2116647406
 21
186.5002899170
  0
ARC
  8
Layer0$C$L0
 62
     3
 10
60.7116952582
 20
186.5002899170
 40
0.5000000000
 50
113.8655372381
 51
179.9999640278
  0
LINE
  8
Layer0$C$L0
 62
     3
 10
60.2116952582
 20
185.3902435303
 11
60.2116952582
 21
186.5002899170
  0
ARC
  8
Layer0$C$L0
 62
     3
 10
62.0746102972
 20
186.8812103272
 40
1.2999992371
 50
108.3069653671
 51
139.6839255084
  0
ARC
  8
Layer0$C$L0
 62
     3
 10
67.1832833929
 20
182.5462493897
 40
8.0000000000
 50
157.5832831718
 51
168.3160238675
  0
ARC
  8
Layer0$C$L0
 62
     3
 10
60.6221261664
 20
183.9031219483
 40
1.2999992371
 50
168.3160238675
 51
199.6926561598
  0
LINE
  8
Layer0$C$L0
 62
     3
 10
59.7877777010
 20
185.5970020096
 11
60.3130159627
 21
185.3408262096
  0
ARC
  8
Layer0$C$L0
 62
     3
 10
59.8117013617
 20
182.5516815186
 40
0.5000000000
 50
179.9999640278
 51
243.9999840226
  0
LINE
  8
Layer0$C$L0
 62
     3
 10
59.8117013617
 20
182.4880218506
 11
59.8117013617
 21
181.9954071045
  0
LINE
  8
Layer0$C$L0
 62
     3
 10
59.5925119519
 20
182.1022929842
 11
60.2116671705
 21
181.8003108268
  0
LINE
  8
Layer0$C$L0
 62
     3
 10
60.2116952582
 20
174.6002960205
 11
61.0117135687
 21
174.6002960205
  0
LINE
  8
Layer0$C$L0
 62
     3
 10
60.2116952582
 20
171.9003143311
 11
61.0117135687
 21
171.9003143311
  0
LINE
  8
Layer0$C$L0
 62
     3
 10
61.0117135687
 20
174.6002960205
 11
61.0117135687
 21
171.9003143311
  0
LINE
  8
Layer0$C$L0
 62
     3
 10
59.3117013617
 20
183.2878265381
 11
59.3117013617
 21
182.5516815186
  0
LINE
  8
Layer0$C$L0
 62
     3
 10
62.0584439528
 20
188.9194841607
 11
59.3117046576
 21
183.2878336576
  0
LINE
  8
Layer0$C$L0
 62
     3
 10
63.0854771828
 20
189.2003046056
 11
59.8116838383
 21
182.4880330885
  0
LINE
  8
Layer0$C$L0
 62
     3
 10
60.8117013617
 20
171.5002899170
 11
63.3117013617
 21
171.5002899170
  0
LINE
  8
Layer0$C$L0
 62
     3
 10
63.8117013617
 20
162.5003204346
 11
65.8117013617
 21
162.5003204346
  0
LINE
  8
Layer0$C$L0
 62
     3
 10
60.2116952582
 20
162.4003143311
 11
61.0117135687
 21
162.4003143311
  0
LINE
  8
Layer0$C$L0
 62
     3
 10
60.2116952582
 20
165.1002960205
 11
61.0117135687
 21
165.1002960205
  0
LINE
  8
Layer0$C$L0
 62
     3
 10
61.0117135687
 20
162.4003143311
 11
61.0117135687
 21
165.1002960205
  0
LINE
  8
Layer0$C$L0
 62
     3
 10
59.8117013617
 20
154.5125885010
 11
59.8117013617
 21
155.0052337647
  0
ARC
  8
Layer0$C$L0
 62
     3
 10
59.8117013617
 20
154.4489288330
 40
0.5000000000
 50
115.9999986745
 51
179.9999640278
  0
LINE
  8
Layer0$C$L0
 62
     3
 10
59.5925290319
 20
154.8983184355
 11
60.2116979650
 21
155.2003072820
  0
ARC
  8
Layer0$C$L0
 62
     3
 10
67.1832833929
 20
154.4543304444
 40
8.0000000000
 50
209.5832791544
 51
220.3160744916
  0
LINE
  8
Layer0$C$L0
 62
     3
 10
60.2261800355
 20
150.5048211871
 11
60.7514045827
 21
150.7609902980
  0
ARC
  8
Layer0$C$L0
 62
     3
 10
60.7116952582
 20
150.5003204346
 40
0.5000000000
 50
179.9999640278
 51
246.1344454590
  0
LINE
  8
Layer0$C$L0
 62
     3
 10
60.2116952582
 20
151.6103668213
 11
60.2116952582
 21
150.5003204346
  0
ARC
  8
Layer0$C$L0
 62
     3
 10
62.0746102972
 20
150.1194000244
 40
1.2999992371
 50
220.3160744916
 51
251.6930346329
  0
ARC
  8
Layer0$C$L0
 62
     3
 10
60.6221261664
 20
153.0975189209
 40
1.2999992371
 50
160.3072718959
 51
191.6839041881
  0
ARC
  8
Layer0$C$L0
 62
     3
 10
67.1832833929
 20
154.4543609619
 40
8.0000000000
 50
191.6839761325
 51
202.4167168282
  0
LINE
  8
Layer0$C$L0
 62
     3
 10
59.7878089136
 20
151.4036152420
 11
60.3130334608
 21
151.6597843530
  0
LINE
  8
Layer0$C$L0
 62
     3
 10
59.3117013617
 20
153.7127838135
 11
59.3117013617
 21
154.4489288330
  0
LINE
  8
Layer0$C$L0
 62
     3
 10
60.8117013617
 20
165.5003204346
 11
63.3117013617
 21
165.5003204346
  0
LINE
  8
Layer0$C$L0
 62
     3
 10
60.2116647406
 20
150.5003204346
 11
60.2116647406
 21
151.6103435280
  0
LINE
  8
Layer0$C$L0
 62
     3
 10
60.2116952582
 20
155.2003021240
 11
60.2116952582
 21
181.8003082276
  0
LINE
  8
Layer0$C$L0
 62
     3
 10
65.8117013617
 20
162.5003204346
 11
65.8117013617
 21
174.5002899170
  0
LINE
  8
Layer0$C$L0
 62
     3
 10
63.8117013617
 20
162.5003204346
 11
63.8117013617
 21
174.5002899170
  0
LINE
  8
Layer0$C$L0
 62
     3
 10
60.8117013617
 20
165.5003204346
 11
60.8117013617
 21
171.5002899170
  0
LINE
  8
Layer0$C$L0
 62
     3
 10
63.3117013617
 20
165.5003204346
 11
63.3117013617
 21
171.5002899170
  0
LINE
  8
Layer0$C$L0
 62
     3
 10
60.2116342230
 20
237.7003021240
 11
60.2116342230
 21
229.3003082276
  0
LINE
  8
Layer0$C$L0
 62
     3
 10
79.9116159125
 20
218.8003082276
 11
59.6116281195
 21
218.8003082276
  0
LINE
  8
Layer0$C$L0
 62
     3
 10
60.2116342230
 20
228.1002960205
 11
59.6116281195
 21
228.1002960205
  0
LINE
  8
Layer0$C$L0
 62
     3
 10
60.2116342230
 20
238.9003143311
 11
59.6116281195
 21
238.9003143311
  0
ARC
  8
Layer0$C$L0
 62
     3
 10
62.5078378363
 20
148.3003082276
 40
0.5000000000
 50
205.9999979913
 51
270.0000179861
  0
LINE
  8
Layer0$C$L0
 62
     3
 10
62.5078378363
 20
147.8003082276
 11
68.3681283636
 21
147.8003082276
  0
LINE
  8
Layer0$C$L0
 62
     3
 10
63.0855050726
 20
148.1003265381
 11
68.0779061957
 21
148.1003265381
  0
LINE
  8
Layer0$C$L0
 62
     3
 10
63.0855046329
 20
147.8003203605
 11
59.8117146328
 21
154.5125850202
  0
LINE
  8
Layer0$C$L0
 62
     3
 10
62.0584643773
 20
148.0811204018
 11
59.3117150486
 21
153.7127914766
  0
LINE
  8
Layer0$C$L0
  6
CENTER
 62
     3
 10
56.9349771185
 20
168.5003051758
 11
115.6374580216
 21
168.5003051758
  0
LINE
  8
Layer0$C$L0
  6
CENTER
 62
     3
 10
56.9349771185
 20
233.5002899170
 11
115.6374580216
 21
233.5002899170
  0
LINE
  8
Layer0$C$L0
 62
     3
 10
94.7116952582
 20
228.2002410889
 11
80.2116952582
 21
228.2002410889
  0
LINE
  8
Layer0$C$L0
 62
     3
 10
94.7116952582
 20
229.3000946045
 11
80.2116952582
 21
229.3000946045
  0
LINE
  8
Layer0$C$L0
 62
     3
 10
80.2116952582
 20
187.0003204346
 11
94.2116952582
 21
187.0003204346
  0
LINE
  8
Layer0$C$L0
 62
     3
 10
80.2116952582
 20
186.5003204346
 11
94.2116952582
 21
186.5003204346
  0
LINE
  8
Layer0$C$L0
 62
     3
 10
94.2116952582
 20
150.0003204346
 11
80.2116952582
 21
150.0003204346
  0
LINE
  8
Layer0$C$L0
 62
     3
 10
94.2116952582
 20
150.5003204346
 11
80.2116952582
 21
150.5003204346
  0
LINE
  8
Layer0$C$L0
 62
     3
 10
94.2116952582
 20
218.7002410889
 11
80.2116952582
 21
218.7002410889
  0
LINE
  8
Layer0$C$L0
 62
     3
 10
88.2116952582
 20
232.4001922608
 11
80.2116952582
 21
232.4001922608
  0
LINE
  8
Layer0$C$L0
 62
     3
 10
80.2116342230
 20
229.3502960205
 11
91.7116342230
 21
229.3502960205
  0
LINE
  8
Layer0$C$L0
 62
     3
 10
80.2116342230
 20
232.3502960205
 11
91.7116342230
 21
232.3502960205
  0
LINE
  8
Layer0$C$L0
 62
     3
 10
80.2116952582
 20
237.7004852295
 11
94.7116952582
 21
237.7004852295
  0
LINE
  8
Layer0$C$L0
 62
     3
 10
80.2116952582
 20
238.8003387451
 11
94.7116952582
 21
238.8003387451
  0
LINE
  8
Layer0$C$L0
 62
     3
 10
80.2116342230
 20
234.6503143311
 11
91.7116342230
 21
234.6503143311
  0
LINE
  8
Layer0$C$L0
 62
     3
 10
80.2116342230
 20
237.6503143311
 11
91.7116342230
 21
237.6503143311
  0
LINE
  8
Layer0$C$L0
 62
     3
 10
80.2116952582
 20
234.6003875733
 11
88.2116952582
 21
234.6003875733
  0
LINE
  8
Layer0$C$L0
 10
0.0000000000
 20
0.0000000000
 11
210.0000000000
 21
0.0000000000
  0
LINE
  8
Layer0$C$L0
 62
     3
 10
112.0116983099
 20
242.6002960205
 11
112.0116983099
 21
224.4002990723
  0
LINE
  8
Layer0$C$L0
 62
     3
 10
94.7116952582
 20
250.5003051758
 11
94.7116952582
 21
216.5003051758
  0
LINE
  8
Layer0$C$L0
 62
     3
 10
97.7116952582
 20
216.5003051758
 11
97.7116952582
 21
250.5003051758
  0
LINE
  8
Layer0$C$L0
 62
     3
 10
99.2116952582
 20
216.5003051758
 11
99.2116952582
 21
250.5003051758
  0
LINE
  8
Layer0$C$L0
 62
     3
 10
100.7116952582
 20
216.5003051758
 11
100.7116952582
 21
250.5003051758
  0
LINE
  8
Layer0$C$L0
 62
     3
 10
101.7116952582
 20
219.0003051758
 11
101.7116952582
 21
248.0002899170
  0
LINE
  8
Layer0$C$L0
 62
     3
 10
102.2116952582
 20
218.5003051758
 11
102.2116952582
 21
248.5003051758
  0
LINE
  8
Layer0$C$L0
 62
     3
 10
106.2116952582
 20
219.0003051758
 11
106.2116952582
 21
248.0002899170
  0
LINE
  8
Layer0$C$L0
 62
     3
 10
105.9117074652
 20
218.5003051758
 11
105.9117074652
 21
248.5003051758
  0
LINE
  8
Layer0$C$L0
 62
     3
 10
110.7116952582
 20
220.5003051758
 11
110.7116952582
 21
246.5002899170
  0
LINE
  8
Layer0$C$L0
 10
0.0000000000
 20
297.0000000000
 11
0.0000000000
 21
0.0000000000
  0
LINE
  8
Layer0$C$L0
 62
     3
 10
65.9116159125
 20
247.1002960205
 11
65.9116159125
 21
237.7003021240
  0
LINE
  8
Layer0$C$L0
 62
     3
 10
62.1953378363
 20
238.0003204346
 11
62.1953378363
 21
247.9003143311
  0
LINE
  8
Layer0$C$L0
 62
     3
 10
59.3116403265
 20
239.2003021240
 11
59.3116403265
 21
241.0407257080
  0
LINE
  8
Layer0$C$L0
 62
     3
 10
59.7498293281
 20
240.6240869402
 11
59.9105125090
 21
240.4039496162
  0
LINE
  8
Layer0$C$L0
 62
     3
 10
61.0375119689
 20
240.3797680316
 11
61.1919768157
 21
240.5806930479
  0
LINE
  8
Layer0$C$L0
 62
     3
 10
61.2755064637
 20
240.3574963146
 11
61.4281360297
 21
240.6210241316
  0
LINE
  8
Layer0$C$L0
 62
     3
 10
80.2116952582
 20
248.3003387451
 11
80.2116952582
 21
237.7004852295
  0
LINE
  8
Layer0$C$L0
 62
     3
 10
80.2116342230
 20
247.9003143311
 11
80.2116342230
 21
237.6503143311
  0
LINE
  8
Layer0$C$L0
 62
     3
 10
80.2116342230
 20
248.2002868653
 11
80.2116342230
 21
237.6003112793
  0
LINE
  8
Layer0$C$L0
 10
210.0000000000
 20
0.0000000000
 11
210.0000000000
 21
297.0000000000
  0
ENDSEC
  0
EOF
