  0
SECTION
  2
HEADER
  9
$ACADVER
  1
AC1015
  9
$ACADMAINTVER
 70
    13
  9
$DWGCODEPAGE
  3
ANSI_932
  9
$INSBASE
 10
0.0
 20
0.0
 30
0.0
  9
$EXTMIN
 10
-0.0068164684117846
 20
-0.0007437651621558
 30
-0.0000000349181948
  9
$EXTMAX
 10
210.0015847910797
 20
297.0188810317841
 30
0.0000000814935747
  9
$LIMMIN
 10
-187.1840026854999
 20
-3.174999999999998
  9
$LIMMAX
 10
3.174999999999998
 20
291.2585876465
  9
$ORTHOMODE
 70
     0
  9
$REGENMODE
 70
     1
  9
$FILLMODE
 70
     1
  9
$QTEXTMODE
 70
     0
  9
$MIRRTEXT
 70
     0
  9
$LTSCALE
 40
1.0
  9
$ATTMODE
 70
     1
  9
$TEXTSIZE
 40
2.999994039499997
  9
$TRACEWID
 40
0.05
  9
$TEXTSTYLE
  7
STANDARD
  9
$CLAYER
  8
0
  9
$CELTYPE
  6
ByLayer
  9
$CECOLOR
 62
   256
  9
$CELTSCALE
 40
1.0
  9
$DISPSILH
 70
     0
  9
$DIMSCALE
 40
1.0
  9
$DIMASZ
 40
1.9727878465
  9
$DIMEXO
 40
2.539999961899999
  9
$DIMDLI
 40
0.38
  9
$DIMRND
 40
0.0
  9
$DIMDLE
 40
0.0
  9
$DIMEXE
 40
3.809999942799997
  9
$DIMTP
 40
0.0
  9
$DIMTM
 40
0.0
  9
$DIMTXT
 40
2.999994039499997
  9
$DIMCEN
 40
0.09
  9
$DIMTSZ
 40
0.0
  9
$DIMTOL
 70
     0
  9
$DIMLIM
 70
     0
  9
$DIMTIH
 70
     0
  9
$DIMTOH
 70
     1
  9
$DIMSE1
 70
     0
  9
$DIMSE2
 70
     0
  9
$DIMTAD
 70
     0
  9
$DIMZIN
 70
     0
  9
$DIMBLK
  1

  9
$DIMASO
 70
     1
  9
$DIMSHO
 70
     0
  9
$DIMPOST
  1

  9
$DIMAPOST
  1

  9
$DIMALT
 70
     0
  9
$DIMALTD
 70
     2
  9
$DIMALTF
 40
25.4
  9
$DIMLFAC
 40
1.0
  9
$DIMTOFL
 70
     0
  9
$DIMTVP
 40
0.0
  9
$DIMTIX
 70
     0
  9
$DIMSOXD
 70
     0
  9
$DIMSAH
 70
     0
  9
$DIMBLK1
  1

  9
$DIMBLK2
  1

  9
$DIMSTYLE
  2
Standard
  9
$DIMCLRD
 70
     0
  9
$DIMCLRE
 70
     0
  9
$DIMCLRT
 70
     0
  9
$DIMTFAC
 40
1.0
  9
$DIMGAP
 40
0.09
  9
$DIMJUST
 70
     0
  9
$DIMSD1
 70
     0
  9
$DIMSD2
 70
     0
  9
$DIMTOLJ
 70
     1
  9
$DIMTZIN
 70
     0
  9
$DIMALTZ
 70
     0
  9
$DIMALTTZ
 70
     0
  9
$DIMUPT
 70
     0
  9
$DIMDEC
 70
     4
  9
$DIMTDEC
 70
     4
  9
$DIMALTU
 70
     2
  9
$DIMALTTD
 70
     2
  9
$DIMTXSTY
  7
STANDARD
  9
$DIMAUNIT
 70
     0
  9
$DIMADEC
 70
     0
  9
$DIMALTRND
 40
0.0
  9
$DIMAZIN
 70
     0
  9
$DIMDSEP
 70
    46
  9
$DIMATFIT
 70
     3
  9
$DIMFRAC
 70
     0
  9
$DIMLDRBLK
  1

  9
$DIMLUNIT
 70
     2
  9
$DIMLWD
 70
    -2
  9
$DIMLWE
 70
    -2
  9
$DIMTMOVE
 70
     0
  9
$LUNITS
 70
     2
  9
$LUPREC
 70
     3
  9
$SKETCHINC
 40
0.1
  9
$FILLETRAD
 40
0.0625
  9
$AUNITS
 70
     0
  9
$AUPREC
 70
     0
  9
$MENU
  1
ACAD
  9
$ELEVATION
 40
0.0
  9
$PELEVATION
 40
0.0
  9
$THICKNESS
 40
0.0
  9
$LIMCHECK
 70
     0
  9
$CHAMFERA
 40
0.0
  9
$CHAMFERB
 40
0.0
  9
$CHAMFERC
 40
0.0
  9
$CHAMFERD
 40
0.0
  9
$SKPOLY
 70
     0
  9
$TDCREATE
 40
2452272.492766204
  9
$TDUCREATE
 40
2452272.117766204
  9
$TDUPDATE
 40
2453320.712224745
  9
$TDUUPDATE
 40
2453320.337224745
  9
$TDINDWG
 40
0.0039297569
  9
$TDUSRTIMER
 40
0.0039293981
  9
$USRTIMER
 70
     1
  9
$ANGBASE
 50
0.0
  9
$ANGDIR
 70
     0
  9
$PDMODE
 70
     0
  9
$PDSIZE
 40
0.0
  9
$PLINEWID
 40
0.0
  9
$SPLFRAME
 70
     0
  9
$SPLINETYPE
 70
     6
  9
$SPLINESEGS
 70
     8
  9
$HANDSEED
  5
2FE
  9
$SURFTAB1
 70
     6
  9
$SURFTAB2
 70
     6
  9
$SURFTYPE
 70
     6
  9
$SURFU
 70
     6
  9
$SURFV
 70
     6
  9
$UCSBASE
  2

  9
$UCSNAME
  2

  9
$UCSORG
 10
0.0
 20
0.0
 30
0.0
  9
$UCSXDIR
 10
1.0
 20
0.0
 30
0.0
  9
$UCSYDIR
 10
0.0
 20
1.0
 30
0.0
  9
$UCSORTHOREF
  2

  9
$UCSORTHOVIEW
 70
     0
  9
$UCSORGTOP
 10
0.0
 20
0.0
 30
0.0
  9
$UCSORGBOTTOM
 10
0.0
 20
0.0
 30
0.0
  9
$UCSORGLEFT
 10
0.0
 20
0.0
 30
0.0
  9
$UCSORGRIGHT
 10
0.0
 20
0.0
 30
0.0
  9
$UCSORGFRONT
 10
0.0
 20
0.0
 30
0.0
  9
$UCSORGBACK
 10
0.0
 20
0.0
 30
0.0
  9
$PUCSBASE
  2

  9
$PUCSNAME
  2

  9
$PUCSORG
 10
0.0
 20
0.0
 30
0.0
  9
$PUCSXDIR
 10
1.0
 20
0.0
 30
0.0
  9
$PUCSYDIR
 10
0.0
 20
1.0
 30
0.0
  9
$PUCSORTHOREF
  2

  9
$PUCSORTHOVIEW
 70
     0
  9
$PUCSORGTOP
 10
0.0
 20
0.0
 30
0.0
  9
$PUCSORGBOTTOM
 10
0.0
 20
0.0
 30
0.0
  9
$PUCSORGLEFT
 10
0.0
 20
0.0
 30
0.0
  9
$PUCSORGRIGHT
 10
0.0
 20
0.0
 30
0.0
  9
$PUCSORGFRONT
 10
0.0
 20
0.0
 30
0.0
  9
$PUCSORGBACK
 10
0.0
 20
0.0
 30
0.0
  9
$USERI1
 70
     9
  9
$USERI2
 70
     0
  9
$USERI3
 70
     0
  9
$USERI4
 70
     0
  9
$USERI5
 70
     0
  9
$USERR1
 40
0.0
  9
$USERR2
 40
0.0
  9
$USERR3
 40
0.0
  9
$USERR4
 40
0.0
  9
$USERR5
 40
0.0
  9
$WORLDVIEW
 70
     1
  9
$SHADEDGE
 70
     3
  9
$SHADEDIF
 70
    70
  9
$TILEMODE
 70
     1
  9
$MAXACTVP
 70
    64
  9
$PINSBASE
 10
0.0
 20
0.0
 30
0.0
  9
$PLIMCHECK
 70
     0
  9
$PEXTMIN
 10
1.000000000000000E+20
 20
1.000000000000000E+20
 30
1.000000000000000E+20
  9
$PEXTMAX
 10
-1.000000000000000E+20
 20
-1.000000000000000E+20
 30
-1.000000000000000E+20
  9
$PLIMMIN
 10
0.0
 20
0.0
  9
$PLIMMAX
 10
12.0
 20
9.0
  9
$UNITMODE
 70
     0
  9
$VISRETAIN
 70
     1
  9
$PLINEGEN
 70
     0
  9
$PSLTSCALE
 70
     1
  9
$TREEDEPTH
 70
  3020
  9
$CMLSTYLE
  2
Standard
  9
$CMLJUST
 70
     0
  9
$CMLSCALE
 40
1.0
  9
$PROXYGRAPHICS
 70
     1
  9
$MEASUREMENT
 70
     0
  9
$CELWEIGHT
370
    -1
  9
$ENDCAPS
280
     0
  9
$JOINSTYLE
280
     0
  9
$LWDISPLAY
290
     0
  9
$INSUNITS
 70
     0
  9
$HYPERLINKBASE
  1

  9
$STYLESHEET
  1

  9
$XEDIT
290
     1
  9
$CEPSNTYPE
380
     0
  9
$PSTYLEMODE
290
     1
  9
$FINGERPRINTGUID
  2
{B3D99CEF-2BFF-4576-9FE6-2F12D465C35F}
  9
$VERSIONGUID
  2
{B5C722F2-E265-44D5-BA22-99F27C202D71}
  9
$EXTNAMES
290
     1
  9
$PSVPSCALE
 40
0.0
  9
$OLESTARTUP
290
     0
  0
ENDSEC
  0
SECTION
  2
CLASSES
  0
CLASS
  1
ACDBDICTIONARYWDFLT
  2
AcDbDictionaryWithDefault
  3
AutoCAD 2000
 90
        0
280
     0
281
     0
  0
CLASS
  1
ACDBPLACEHOLDER
  2
AcDbPlaceHolder
  3
AutoCAD 2000
 90
        0
280
     0
281
     0
  0
CLASS
  1
LAYOUT
  2
AcDbLayout
  3
AutoCAD 2000
 90
        0
280
     0
281
     0
  0
CLASS
  1
DICTIONARYVAR
  2
AcDbDictionaryVar
  3
AutoCAD 2000
 90
        0
280
     0
281
     0
  0
ENDSEC
  0
SECTION
  2
TABLES
  0
TABLE
  2
VPORT
  5
19
330
0
100
AcDbSymbolTable
 70
     2
  0
VPORT
  5
2FD
330
19
100
AcDbSymbolTableRecord
100
AcDbViewportTableRecord
  2
*Active
 70
     0
 10
0.0
 20
0.0
 11
1.0
 21
1.0
 12
104.9973841613339
 22
148.509068633311
 13
0.0
 23
0.0
 14
1.0
 24
1.0
 15
0.0
 25
0.0
 16
0.0
 26
0.0
 36
1.0
 17
0.0
 27
0.0
 37
0.0
 40
303.3616808424327
 41
3.060714285714285
 42
50.0
 43
0.0
 44
0.0
 50
0.0
 51
0.0
 71
     0
 72
   100
 73
     1
 74
     1
 75
     0
 76
     0
 77
     0
 78
     0
281
     0
 65
     1
110
0.0
120
0.0
130
0.0
111
1.0
121
0.0
131
0.0
112
0.0
122
1.0
132
0.0
 79
     0
146
0.0
  0
ENDTAB
  0
TABLE
  2
LTYPE
  5
14
330
0
100
AcDbSymbolTable
 70
     3
  0
LTYPE
  5
15
330
14
100
AcDbSymbolTableRecord
100
AcDbLinetypeTableRecord
  2
ByBlock
 70
     0
  3

 72
    65
 73
     0
 40
0.0
  0
LTYPE
  5
16
330
14
100
AcDbSymbolTableRecord
100
AcDbLinetypeTableRecord
  2
ByLayer
 70
     0
  3

 72
    65
 73
     0
 40
0.0
  0
LTYPE
  5
8
330
14
100
AcDbSymbolTableRecord
100
AcDbLinetypeTableRecord
  2
Continuous
 70
     0
  3
Solid line
 72
    65
 73
     0
 40
0.0
  0
LTYPE
  5
4F
330
14
100
AcDbSymbolTableRecord
100
AcDbLinetypeTableRecord
  2
DASH
 70
     0
  3
Dash
 72
    65
 73
     2
 40
1.9999960661
 49
0.9999980329999999
 74
     0
 49
-0.9999980329999999
 74
     0
  0
LTYPE
  5
31
330
14
100
AcDbSymbolTableRecord
100
AcDbLinetypeTableRecord
  2
CENTER
 70
     0
  3
Center
 72
    65
 73
     4
 40
9.100006759199999
 49
6.5000119209
 74
     0
 49
-0.7999984026000001
 74
     0
 49
0.9999980329999999
 74
     0
 49
-0.7999984026000001
 74
     0
  0
ENDTAB
  0
TABLE
  2
LAYER
  5
10
330
0
100
AcDbSymbolTable
 70
     1
  0
LAYER
  5
4
330
10
100
AcDbSymbolTableRecord
100
AcDbLayerTableRecord
  2
0
 70
     0
 62
     7
  6
Continuous
370
    -3
390
5
  0
ENDTAB
  0
TABLE
  2
STYLE
  5
11
330
0
100
AcDbSymbolTable
 70
     1
  0
STYLE
  5
12
330
11
100
AcDbSymbolTableRecord
100
AcDbTextStyleTableRecord
  2
STANDARD
 70
     0
 40
0.0
 41
1.0
 50
0.0
 71
     0
 42
2.999994039499997
  3
romans.shx
  4
bigfont.shx
  0
ENDTAB
  0
TABLE
  2
VIEW
  5
17
330
0
100
AcDbSymbolTable
 70
     0
  0
ENDTAB
  0
TABLE
  2
UCS
  5
18
330
0
100
AcDbSymbolTable
 70
     0
  0
ENDTAB
  0
TABLE
  2
APPID
  5
1B
330
0
100
AcDbSymbolTable
 70
     1
  0
APPID
  5
1C
330
1B
100
AcDbSymbolTableRecord
100
AcDbRegAppTableRecord
  2
ACAD
 70
     0
  0
ENDTAB
  0
TABLE
  2
DIMSTYLE
  5
1D
330
0
100
AcDbSymbolTable
 70
     1
100
AcDbDimStyleTable
 71
     0
  0
DIMSTYLE
105
23
330
1D
100
AcDbSymbolTableRecord
100
AcDbDimStyleTableRecord
  2
Standard
 70
     0
340
12
  0
ENDTAB
  0
TABLE
  2
BLOCK_RECORD
  5
1
330
0
100
AcDbSymbolTable
 70
     1
  0
BLOCK_RECORD
  5
2
330
1
100
AcDbSymbolTableRecord
100
AcDbBlockTableRecord
  2
*Model_Space
340
A
  0
BLOCK_RECORD
  5
C
330
1
100
AcDbSymbolTableRecord
100
AcDbBlockTableRecord
  2
*Paper_Space
340
F
  0
ENDTAB
  0
ENDSEC
  0
SECTION
  2
BLOCKS
  0
BLOCK
  5
3
330
2
100
AcDbEntity
  8
0
100
AcDbBlockBegin
  2
*Model_Space
 70
     2
 10
0.0
 20
0.0
 30
0.0
  3
*Model_Space
  1

  0
ENDBLK
  5
9
330
2
100
AcDbEntity
  8
0
100
AcDbBlockEnd
  0
BLOCK
  5
D
330
C
100
AcDbEntity
 67
     1
  8
0
100
AcDbBlockBegin
  2
*Paper_Space
 70
     0
 10
0.0
 20
0.0
 30
0.0
  3
*Paper_Space
  1

  0
ENDBLK
  5
E
330
C
100
AcDbEntity
 67
     1
  8
0
100
AcDbBlockEnd
  0
ENDSEC
  0
SECTION
  2
ENTITIES
  0
LINE
  5
24
330
2
100
AcDbEntity
  8
0
100
AcDbLine
 10
210.0
 20
0.0
 30
0.0
 11
210.0
 21
297.0
 31
0.0
  0
LINE
  5
25
330
2
100
AcDbEntity
  8
0
100
AcDbLine
 10
0.0
 20
297.0
 30
0.0
 11
0.0
 21
0.0
 31
0.0
  0
LINE
  5
26
330
2
100
AcDbEntity
  8
0
 62
     3
100
AcDbLine
 10
149.8170159975998
 20
197.0499528084999
 30
0.0
 11
140.8159118081
 21
196.8499253194
 31
0.0
  0
LINE
  5
27
330
2
100
AcDbEntity
  8
0
 62
     3
100
AcDbLine
 10
140.8164747022999
 20
220.1430951098998
 30
0.0
 11
149.8170449659999
 21
219.9430817330999
 31
0.0
  0
LINE
  5
28
330
2
100
AcDbEntity
  8
0
 62
     3
100
AcDbLine
 10
140.8164557422999
 20
220.4499339618997
 30
0.0
 11
149.5158308348998
 21
220.2566138347
 31
0.0
  0
LINE
  5
29
330
2
100
AcDbEntity
  8
0
 62
     3
100
AcDbLine
 10
149.5084721122998
 20
196.7430841916998
 30
0.0
 11
140.8158549948
 21
196.5499126873999
 31
0.0
  0
LINE
  5
2A
330
2
100
AcDbEntity
  8
0
 62
     3
100
AcDbLine
 10
149.8157318279998
 20
160.0504679378
 30
0.0
 11
140.8096087359999
 21
159.8503311643
 31
0.0
  0
LINE
  5
2B
330
2
100
AcDbEntity
  8
0
 62
     3
100
AcDbLine
 10
140.8176828069999
 20
177.1427325469
 30
0.0
 11
149.8164420798
 21
176.9427594145
 31
0.0
  0
LINE
  5
2C
330
2
100
AcDbEntity
  8
0
 62
     3
100
AcDbLine
 10
140.8169664727999
 20
177.4495868962
 30
0.0
 11
149.5164636055999
 21
177.256264057
 31
0.0
  0
LINE
  5
2D
330
2
100
AcDbEntity
  8
0
 62
     3
100
AcDbLine
 10
149.5088892709
 20
159.7436483847999
 30
0.0
 11
140.8162721533997
 21
159.5504784353
 31
0.0
  0
TEXT
  5
2E
330
2
100
AcDbEntity
  8
0
 62
     5
100
AcDbText
 10
145.0
 20
10.0
 30
0.0
 40
5.0
  1
ＭＡ４－Ｈ０１３５７Ｂ
 41
0.8443967743953097
 72
     5
 11
199.0413935612998
 21
10.0
 31
0.0
100
AcDbText
  0
LINE
  5
2F
330
2
100
AcDbEntity
  8
0
100
AcDbLine
 10
0.0
 20
0.0
 30
0.0
 11
210.0
 21
0.0
 31
0.0
  0
LINE
  5
30
330
2
100
AcDbEntity
  8
0
  6
CENTER
 62
     3
100
AcDbLine
 10
109.8176980657999
 20
208.5000152587999
 30
0.0
 11
151.5575509710999
 21
208.5000152587999
 31
0.0
  0
LINE
  5
32
330
2
100
AcDbEntity
  8
0
  6
CENTER
 62
     3
100
AcDbLine
 10
108.7604470892
 20
168.5
 30
0.0
 11
152.1345925969999
 21
168.5
 31
0.0
  0
LINE
  5
33
330
2
100
AcDbEntity
  8
0
 62
     3
100
AcDbLine
 10
86.11406952579995
 20
171.0000152587999
 30
0.0
 11
86.97265106869998
 21
171.0000152587999
 31
0.0
  0
LINE
  5
34
330
2
100
AcDbEntity
  8
0
 62
     3
100
AcDbLine
 10
86.11406952579995
 20
166.0000152587999
 30
0.0
 11
86.97265106869998
 21
166.0000152587999
 31
0.0
  0
LINE
  5
35
330
2
100
AcDbEntity
  8
0
 62
     3
100
AcDbLine
 10
86.46407562929997
 20
169.900024414
 30
0.0
 11
85.96407562929995
 21
169.900024414
 31
0.0
  0
LINE
  5
36
330
2
100
AcDbEntity
  8
0
 62
     3
100
AcDbLine
 10
86.46407562929997
 20
167.1000213622999
 30
0.0
 11
85.96407562929995
 21
167.1000213622999
 31
0.0
  0
CIRCLE
  5
37
330
2
100
AcDbEntity
  8
0
 62
     3
100
AcDbCircle
 10
80.11408478449999
 20
168.5
 30
0.0
 40
9.0
  0
CIRCLE
  5
38
330
2
100
AcDbEntity
  8
0
 62
     3
100
AcDbCircle
 10
80.11408478449999
 20
168.5
 30
0.0
 40
8.0
  0
CIRCLE
  5
39
330
2
100
AcDbEntity
  8
0
 62
     3
100
AcDbCircle
 10
80.11408478449999
 20
168.5
 30
0.0
 40
7.399999618499996
  0
LINE
  5
3A
330
2
100
AcDbEntity
  8
0
  6
CENTER
 62
     3
100
AcDbLine
 10
65.50297028259999
 20
168.5
 30
0.0
 11
94.65838104920001
 21
168.5
 31
0.0
  0
LINE
  5
3B
330
2
100
AcDbEntity
  8
0
 62
     3
100
AcDbLine
 10
91.81409699159999
 20
159.5000762939
 30
0.0
 11
68.41404205989999
 21
159.5000762939
 31
0.0
  0
LINE
  5
3C
330
2
100
AcDbEntity
  8
0
 62
     3
100
AcDbLine
 10
91.81409699159999
 20
177.499923706
 30
0.0
 11
68.41428620059996
 21
177.499923706
 31
0.0
  0
ARC
  5
3D
330
2
100
AcDbEntity
  8
0
 62
     3
100
AcDbCircle
 10
42.11374909119999
 20
168.5001220703
 30
0.0
 40
6.6999959946
100
AcDbArc
 50
72.6320130679
 51
107.3679509599999
  0
ARC
  5
3E
330
2
100
AcDbEntity
  8
0
 62
     3
100
AcDbCircle
 10
42.11374909119999
 20
168.5001220703
 30
0.0
 40
6.6999959946
100
AcDbArc
 50
255.3432516499
 51
284.6984757969
  0
CIRCLE
  5
3F
330
2
100
AcDbEntity
  8
0
 62
     3
100
AcDbCircle
 10
42.11385590269995
 20
168.5001068115
 30
0.0
 40
8.0
  0
CIRCLE
  5
40
330
2
100
AcDbEntity
  8
0
 62
     3
100
AcDbCircle
 10
42.11385590269995
 20
168.5001068115
 30
0.0
 40
9.0
  0
LINE
  5
41
330
2
100
AcDbEntity
  8
0
 62
     3
100
AcDbLine
 10
53.81388336849997
 20
159.5001678465999
 30
0.0
 11
30.41381317809998
 21
159.5001678465999
 31
0.0
  0
LINE
  5
42
330
2
100
AcDbEntity
  8
0
 62
     3
100
AcDbLine
 10
53.81388336849997
 20
177.5000152588
 30
0.0
 11
30.4140573187
 21
177.5000152588
 31
0.0
  0
CIRCLE
  5
43
330
2
100
AcDbEntity
  8
0
 62
     3
100
AcDbCircle
 10
42.11385590269995
 20
168.5001068115
 30
0.0
 40
7.399999618499996
  0
LINE
  5
44
330
2
100
AcDbEntity
  8
0
  6
CENTER
 62
     3
100
AcDbLine
 10
27.5027414008
 20
168.5001068115
 30
0.0
 11
56.65816742609999
 21
168.5001068115
 31
0.0
  0
ARC
  5
45
330
2
100
AcDbEntity
  8
0
 62
     3
100
AcDbCircle
 10
32.90542084409997
 20
168.5001220703
 30
0.0
 40
6.608330726599997
100
AcDbArc
 50
347.769026574
 51
12.23099050149996
  0
ARC
  5
46
330
2
100
AcDbEntity
  8
0
 62
     3
100
AcDbCircle
 10
46.32207733829997
 20
168.5001220703
 30
0.0
 40
6.608330726599997
100
AcDbArc
 50
167.7689530357999
 51
192.2309203783
  0
LINE
  5
47
330
2
100
AcDbEntity
  8
0
 62
     3
100
AcDbLine
 10
39.86376435
 20
167.1000976561999
 30
0.0
 11
39.86376435
 21
169.9000701904
 31
0.0
  0
LINE
  5
48
330
2
100
AcDbEntity
  8
0
 62
     3
100
AcDbLine
 10
39.36376434999997
 20
167.1000976561999
 30
0.0
 11
39.36376434999997
 21
169.9000701904
 31
0.0
  0
LINE
  5
49
330
2
100
AcDbEntity
  8
0
 62
     3
100
AcDbLine
 10
37.91375214289999
 20
172.1999969481999
 30
0.0
 11
37.91375214289999
 21
164.8000030517
 31
0.0
  0
LINE
  5
4A
330
2
100
AcDbEntity
  8
0
 62
     3
100
AcDbLine
 10
40.81376129819997
 20
173.2667846679
 30
0.0
 11
40.81376129819997
 21
163.600112915
 31
0.0
  0
LINE
  5
4B
330
2
100
AcDbEntity
  8
0
 62
     3
100
AcDbLine
 10
37.9137674017
 20
173.2667388915999
 30
0.0
 11
37.9137674017
 21
163.6001434325999
 31
0.0
  0
ARC
  5
4C
330
2
100
AcDbEntity
  8
0
 62
     3
100
AcDbCircle
 10
42.11374909119999
 20
168.5
 30
0.0
 40
7.2999992371
100
AcDbArc
 50
159.9727565511
 51
200.0271168631
  0
LINE
  5
4D
330
2
100
AcDbEntity
  8
0
 62
     3
100
AcDbLine
 10
34.7138620062
 20
165.4604034422999
 30
0.0
 11
34.7138620062
 21
171.5398712157999
 31
0.0
  0
LINE
  5
4E
330
2
100
AcDbEntity
  8
0
  6
DASH
 62
     3
100
AcDbLine
 10
37.11374909119999
 20
172.1999969481999
 30
0.0
 11
37.11374909119999
 21
164.8000030517
 31
0.0
  0
LINE
  5
50
330
2
100
AcDbEntity
  8
0
 62
     3
100
AcDbLine
 10
36.26375824649997
 20
169.8999938964
 30
0.0
 11
36.26375824649997
 21
167.1000061034999
 31
0.0
  0
LINE
  5
51
330
2
100
AcDbEntity
  8
0
 62
     3
100
AcDbLine
 10
35.76375824649997
 20
169.8999938964
 30
0.0
 11
35.76375824649997
 21
167.1000061034999
 31
0.0
  0
LINE
  5
52
330
2
100
AcDbEntity
  8
0
 62
     3
100
AcDbLine
 10
33.1149087592
 20
177.499923706
 30
0.0
 11
33.1149087592
 21
159.5000610351
 31
0.0
  0
LINE
  5
53
330
2
100
AcDbEntity
  8
0
 62
     3
100
AcDbLine
 10
30.11387116149998
 20
177.2001190185
 30
0.0
 11
30.11387116149998
 21
159.8001098632
 31
0.0
  0
LINE
  5
54
330
2
100
AcDbEntity
  8
0
 62
     3
100
AcDbLine
 10
33.6285806342
 20
165.5001068115
 30
0.0
 11
34.69759613709996
 21
165.5001068115
 31
0.0
  0
LINE
  5
55
330
2
100
AcDbEntity
  8
0
 62
     3
100
AcDbLine
 10
33.61499770869997
 20
161.8439430959
 30
0.0
 11
35.44118599569995
 21
160.0500215379999
 31
0.0
  0
LINE
  5
56
330
2
100
AcDbEntity
  8
0
 62
     3
100
AcDbLine
 10
30.41388631069998
 20
159.5001752816999
 30
0.0
 11
30.1138923142
 21
159.8001689999999
 31
0.0
  0
LINE
  5
57
330
2
100
AcDbEntity
  8
0
 62
     3
100
AcDbLine
 10
38.31380412289997
 20
163.0000969752999
 30
0.0
 11
37.11384643849999
 21
164.8000327284
 31
0.0
  0
LINE
  5
58
330
2
100
AcDbEntity
  8
0
 62
     3
100
AcDbLine
 10
37.11387855259999
 20
164.7998641202
 30
0.0
 11
38.31382446649999
 21
162.9999572405999
 31
0.0
  0
LINE
  5
59
330
2
100
AcDbEntity
  8
0
 62
     3
100
AcDbLine
 10
36.11386806799996
 20
165.9998496751999
 30
0.0
 11
36.61380990449996
 21
164.7999874701999
 31
0.0
  0
LINE
  5
5A
330
2
100
AcDbEntity
  8
0
 62
     3
100
AcDbLine
 10
36.61382089389997
 20
164.7999795257999
 30
0.0
 11
36.11382005979996
 21
165.9999825037999
 31
0.0
  0
LINE
  5
5B
330
2
100
AcDbEntity
  8
0
  6
DASH
 62
     3
100
AcDbLine
 10
36.11374909119999
 20
167.1000061034999
 30
0.0
 11
36.11374909119999
 21
166.0
 31
0.0
  0
LINE
  5
5C
330
2
100
AcDbEntity
  8
0
 62
     3
100
AcDbLine
 10
35.25522858339996
 20
165.9998779296999
 30
0.0
 11
36.11374909119999
 21
165.9998779296999
 31
0.0
  0
LINE
  5
5D
330
2
100
AcDbEntity
  8
0
 62
     3
100
AcDbLine
 10
35.25518280699995
 20
166.0
 30
0.0
 11
36.11374909119999
 21
166.0
 31
0.0
  0
LINE
  5
5E
330
2
100
AcDbEntity
  8
0
 62
     3
100
AcDbLine
 10
36.26375824649997
 20
167.1000061034999
 30
0.0
 11
35.76375824649997
 21
167.1000061034999
 31
0.0
  0
LINE
  5
5F
330
2
100
AcDbEntity
  8
0
 62
     3
100
AcDbLine
 10
36.61377960879997
 20
164.7999725340999
 30
0.0
 11
37.11377960879997
 21
164.7999725340999
 31
0.0
  0
LINE
  5
60
330
2
100
AcDbEntity
  8
0
 62
     3
100
AcDbLine
 10
37.91375214289999
 20
164.8000030517
 30
0.0
 11
36.61374909119999
 21
164.8000030517
 31
0.0
  0
LINE
  5
61
330
2
100
AcDbEntity
  8
0
 62
     3
100
AcDbLine
 10
39.11388642029999
 20
160.0148162840999
 30
0.0
 11
39.11388642029999
 21
161.0837402342999
 31
0.0
  0
LINE
  5
62
330
2
100
AcDbEntity
  8
0
 62
     3
100
AcDbLine
 10
39.86376435
 20
163.0001525879
 30
0.0
 11
40.4137674017
 21
163.0001525879
 31
0.0
  0
LINE
  5
63
330
2
100
AcDbEntity
  8
0
 62
     3
100
AcDbLine
 10
39.91378826419998
 20
162.5001667862
 30
0.0
 11
40.01379176449998
 21
163.0001826772
 31
0.0
  0
ARC
  5
64
330
2
100
AcDbEntity
  8
0
 62
     3
100
AcDbCircle
 10
46.32184845639997
 20
163.5002136229999
 30
0.0
 40
6.6081047058
100
AcDbArc
 50
167.7689530357999
 51
192.2313575105
  0
LINE
  5
65
330
2
100
AcDbEntity
  8
0
 62
     3
100
AcDbLine
 10
39.86376435
 20
162.5001525879
 30
0.0
 11
39.9137674017
 21
162.5001525879
 31
0.0
  0
LINE
  5
66
330
2
100
AcDbEntity
  8
0
 62
     3
100
AcDbLine
 10
39.86376435
 20
164.9001312256
 30
0.0
 11
39.86376435
 21
162.1002044676999
 31
0.0
  0
ARC
  5
67
330
2
100
AcDbEntity
  8
0
 62
     3
100
AcDbCircle
 10
32.90564972589996
 20
163.5002136229999
 30
0.0
 40
6.6081047058
100
AcDbArc
 50
347.7685894419
 51
12.23099050149996
  0
LINE
  5
68
330
2
100
AcDbEntity
  8
0
 62
     3
100
AcDbLine
 10
39.36376434999997
 20
164.9001312256
 30
0.0
 11
39.36376434999997
 21
162.1002044676999
 31
0.0
  0
LINE
  5
69
330
2
100
AcDbEntity
  8
0
 62
     3
100
AcDbLine
 10
38.81377655699995
 20
162.5001525879
 30
0.0
 11
39.36376434999997
 21
162.5001525879
 31
0.0
  0
LINE
  5
6A
330
2
100
AcDbEntity
  8
0
 62
     3
100
AcDbLine
 10
38.71380834569995
 20
163.0001040344
 30
0.0
 11
38.81380885359996
 21
162.5001031058999
 31
0.0
  0
LINE
  5
6B
330
2
100
AcDbEntity
  8
0
 62
     3
100
AcDbLine
 10
38.31377655699995
 20
163.0001525879
 30
0.0
 11
39.36376434999997
 21
163.0001525879
 31
0.0
  0
LINE
  5
6C
330
2
100
AcDbEntity
  8
0
 62
     3
100
AcDbLine
 10
39.36376434999997
 20
167.1000976561999
 30
0.0
 11
39.86376435
 21
167.1000976561999
 31
0.0
  0
LINE
  5
6D
330
2
100
AcDbEntity
  8
0
 62
     3
100
AcDbLine
 10
39.36376434999997
 20
164.9001312256
 30
0.0
 11
39.86376435
 21
164.9001312256
 31
0.0
  0
LINE
  5
6E
330
2
100
AcDbEntity
  8
0
 62
     3
100
AcDbLine
 10
39.36376434999997
 20
162.1002044676999
 30
0.0
 11
39.86376435
 21
162.1002044676999
 31
0.0
  0
LINE
  5
6F
330
2
100
AcDbEntity
  8
0
 62
     3
100
AcDbLine
 10
40.41375214289996
 20
163.0001220702999
 30
0.0
 11
40.41375214289996
 21
162.0193786620999
 31
0.0
  0
LINE
  5
70
330
2
100
AcDbEntity
  8
0
 62
     3
100
AcDbLine
 10
40.41377203129997
 20
163.0000919197
 30
0.0
 11
40.81377463929996
 21
163.6000960251999
 31
0.0
  0
LINE
  5
71
330
2
100
AcDbEntity
  8
0
 62
     3
100
AcDbLine
 10
40.4137674017
 20
163.0000152587999
 30
0.0
 11
40.4137674017
 21
162.0192718506
 31
0.0
  0
LINE
  5
72
330
2
100
AcDbEntity
  8
0
 62
     3
100
AcDbLine
 10
40.41378266049997
 20
162.9998016356999
 30
0.0
 11
40.41378266049997
 21
162.0189666747999
 31
0.0
  0
LINE
  5
73
330
2
100
AcDbEntity
  8
0
 62
     3
100
AcDbLine
 10
35.44118237739999
 20
176.9499995528
 30
0.0
 11
33.6149760826
 21
175.15603081
 31
0.0
  0
LINE
  5
74
330
2
100
AcDbEntity
  8
0
 62
     3
100
AcDbLine
 10
33.6285806342
 20
171.5000762938999
 30
0.0
 11
34.69759613709996
 21
171.5000762938999
 31
0.0
  0
LINE
  5
75
330
2
100
AcDbEntity
  8
0
 62
     3
100
AcDbLine
 10
30.41400846349998
 20
177.499948588
 30
0.0
 11
30.11401449229996
 21
177.1999548444999
 31
0.0
  0
LINE
  5
76
330
2
100
AcDbEntity
  8
0
 62
     3
100
AcDbLine
 10
38.61382293169995
 20
174.2000504045
 30
0.0
 11
37.11382242499996
 21
172.2000508218
 31
0.0
  0
LINE
  5
77
330
2
100
AcDbEntity
  8
0
 62
     3
100
AcDbLine
 10
37.11397394209999
 20
172.1998279486999
 30
0.0
 11
38.61397385269995
 21
174.1998279784999
 31
0.0
  0
LINE
  5
78
330
2
100
AcDbEntity
  8
0
 62
     3
100
AcDbLine
 10
36.11384886969998
 20
170.9997811815999
 30
0.0
 11
36.61384383499998
 21
172.1997700744999
 31
0.0
  0
LINE
  5
79
330
2
100
AcDbEntity
  8
0
 62
     3
100
AcDbLine
 10
36.61378791370001
 20
172.1999359129999
 30
0.0
 11
36.1137867697
 21
170.9999330900999
 31
0.0
  0
LINE
  5
7A
330
2
100
AcDbEntity
  8
0
  6
DASH
 62
     3
100
AcDbLine
 10
36.11374909119999
 20
171.0
 30
0.0
 11
36.11374909119999
 21
169.8999938964
 31
0.0
  0
LINE
  5
7B
330
2
100
AcDbEntity
  8
0
 62
     3
100
AcDbLine
 10
35.41372162539997
 20
169.1999359131
 30
0.0
 11
35.41372162539997
 21
167.7999267577999
 31
0.0
  0
LINE
  5
7C
330
2
100
AcDbEntity
  8
0
 62
     3
100
AcDbLine
 10
35.41372162539997
 20
167.7999267577999
 30
0.0
 11
35.76377350519996
 21
167.7999267577999
 31
0.0
  0
LINE
  5
7D
330
2
100
AcDbEntity
  8
0
 62
     3
100
AcDbLine
 10
35.41372162539997
 20
169.1999359131
 30
0.0
 11
35.76377350519996
 21
169.1999359131
 31
0.0
  0
LINE
  5
7E
330
2
100
AcDbEntity
  8
0
 62
     3
100
AcDbLine
 10
35.76375824649997
 20
169.1999969481999
 30
0.0
 11
35.41375214289999
 21
169.1999969481999
 31
0.0
  0
LINE
  5
7F
330
2
100
AcDbEntity
  8
0
 62
     3
100
AcDbLine
 10
35.76375824649997
 20
167.8000030516999
 30
0.0
 11
35.41375214289999
 21
167.8000030516999
 31
0.0
  0
LINE
  5
80
330
2
100
AcDbEntity
  8
0
 62
     3
100
AcDbLine
 10
35.41375214289999
 20
169.1999969481999
 30
0.0
 11
35.41375214289999
 21
167.8000030516999
 31
0.0
  0
LINE
  5
81
330
2
100
AcDbEntity
  8
0
 62
     3
100
AcDbLine
 10
35.25513703059999
 20
170.9998626708999
 30
0.0
 11
36.11374909119999
 21
170.9998626708999
 31
0.0
  0
LINE
  5
82
330
2
100
AcDbEntity
  8
0
 62
     3
100
AcDbLine
 10
35.25518280699995
 20
171.0
 30
0.0
 11
36.11374909119999
 21
171.0
 31
0.0
  0
LINE
  5
83
330
2
100
AcDbEntity
  8
0
 62
     3
100
AcDbLine
 10
36.26375824649997
 20
169.9000091552
 30
0.0
 11
35.76375824649997
 21
169.9000091552
 31
0.0
  0
ARC
  5
84
330
2
100
AcDbEntity
  8
0
 62
     3
100
AcDbCircle
 10
37.71375519469998
 20
168.5
 30
0.0
 40
0.099999964237
100
AcDbArc
 50
270.0000726275999
 51
89.9999273723999
  0
ARC
  5
85
330
2
100
AcDbEntity
  8
0
 62
     3
100
AcDbCircle
 10
37.11374909119999
 20
169.0999908447
 30
0.0
 40
0.099999964237
100
AcDbArc
 50
0.0
 51
179.9998547448
  0
ARC
  5
86
330
2
100
AcDbEntity
  8
0
 62
     3
100
AcDbCircle
 10
36.51375824649997
 20
168.5
 30
0.0
 40
0.099999964237
100
AcDbArc
 50
90.00003665540001
 51
270.0000006831999
  0
ARC
  5
87
330
2
100
AcDbEntity
  8
0
 62
     3
100
AcDbCircle
 10
37.11374909119999
 20
167.8999938964
 30
0.0
 40
0.099999964237
100
AcDbArc
 50
180.0000906136999
 51
0.0
  0
LINE
  5
88
330
2
100
AcDbEntity
  8
0
 62
     3
100
AcDbLine
 10
36.61374909119999
 20
172.1999359131
 30
0.0
 11
37.11374909119999
 21
172.1999359131
 31
0.0
  0
LINE
  5
89
330
2
100
AcDbEntity
  8
0
 62
     3
100
AcDbLine
 10
37.21375519469998
 20
169.0999908447
 30
0.0
 11
37.21375519469998
 21
168.5999908447
 31
0.0
  0
LINE
  5
8A
330
2
100
AcDbEntity
  8
0
 62
     3
100
AcDbLine
 10
37.01375824649997
 20
169.0999908447
 30
0.0
 11
37.01375824649997
 21
168.5999908447
 31
0.0
  0
LINE
  5
8B
330
2
100
AcDbEntity
  8
0
 62
     3
100
AcDbLine
 10
37.01375824649997
 20
168.6000061034999
 30
0.0
 11
36.51375824649997
 21
168.6000061034999
 31
0.0
  0
LINE
  5
8C
330
2
100
AcDbEntity
  8
0
 62
     3
100
AcDbLine
 10
37.01375824649997
 20
168.3999938964
 30
0.0
 11
36.51375824649997
 21
168.3999938964
 31
0.0
  0
LINE
  5
8D
330
2
100
AcDbEntity
  8
0
 62
     3
100
AcDbLine
 10
37.01375824649997
 20
168.3999938964
 30
0.0
 11
37.01375824649997
 21
167.8999938964
 31
0.0
  0
LINE
  5
8E
330
2
100
AcDbEntity
  8
0
 62
     3
100
AcDbLine
 10
37.21375519469998
 20
168.3999938964
 30
0.0
 11
37.21375519469998
 21
167.8999938964
 31
0.0
  0
LINE
  5
8F
330
2
100
AcDbEntity
  8
0
 62
     3
100
AcDbLine
 10
37.71375519469998
 20
168.3999938964
 30
0.0
 11
37.21375519469998
 21
168.3999938964
 31
0.0
  0
LINE
  5
90
330
2
100
AcDbEntity
  8
0
 62
     3
100
AcDbLine
 10
37.71375519469998
 20
168.6000061034999
 30
0.0
 11
37.21375519469998
 21
168.6000061034999
 31
0.0
  0
LINE
  5
91
330
2
100
AcDbEntity
  8
0
 62
     3
100
AcDbLine
 10
37.91375214289999
 20
172.1999969481999
 30
0.0
 11
36.61374909119999
 21
172.1999969481999
 31
0.0
  0
LINE
  5
92
330
2
100
AcDbEntity
  8
0
 62
     3
100
AcDbLine
 10
40.11389349759997
 20
174.1999603704
 30
0.0
 11
40.81386911139995
 21
173.2666595751999
 31
0.0
  0
ARC
  5
93
330
2
100
AcDbEntity
  8
0
 62
     3
100
AcDbCircle
 10
46.32207733829997
 20
173.5001068114999
 30
0.0
 40
6.608330726599997
100
AcDbArc
 50
167.7689530357999
 51
192.2309203783
  0
LINE
  5
94
330
2
100
AcDbEntity
  8
0
 62
     3
100
AcDbLine
 10
39.86376435
 20
172.1000671385999
 30
0.0
 11
39.86376435
 21
174.9000701904
 31
0.0
  0
LINE
  5
95
330
2
100
AcDbEntity
  8
0
 62
     3
100
AcDbLine
 10
39.36376434999997
 20
172.1000671385999
 30
0.0
 11
39.36376434999997
 21
174.9000701904
 31
0.0
  0
ARC
  5
96
330
2
100
AcDbEntity
  8
0
 62
     3
100
AcDbCircle
 10
32.90542084409997
 20
173.5001068114999
 30
0.0
 40
6.608330726599997
100
AcDbArc
 50
347.769026574
 51
12.23099050149996
  0
LINE
  5
97
330
2
100
AcDbEntity
  8
0
 62
     3
100
AcDbLine
 10
39.36376434999997
 20
172.1000671385999
 30
0.0
 11
39.86376435
 21
172.1000671385999
 31
0.0
  0
LINE
  5
98
330
2
100
AcDbEntity
  8
0
 62
     3
100
AcDbLine
 10
39.36376434999997
 20
169.9000701904
 30
0.0
 11
39.86376435
 21
169.9000701904
 31
0.0
  0
LINE
  5
99
330
2
100
AcDbEntity
  8
0
 62
     3
100
AcDbLine
 10
39.91381051049998
 20
174.7000852803
 30
0.0
 11
40.01381138309997
 21
174.2000844429
 31
0.0
  0
LINE
  5
9A
330
2
100
AcDbEntity
  8
0
 62
     3
100
AcDbLine
 10
40.11376434999997
 20
174.2000732422
 30
0.0
 11
39.86376435
 21
174.2000732422
 31
0.0
  0
LINE
  5
9B
330
2
100
AcDbEntity
  8
0
 62
     3
100
AcDbLine
 10
39.86376435
 20
174.7000732422
 30
0.0
 11
39.9137674017
 21
174.7000732422
 31
0.0
  0
LINE
  5
9C
330
2
100
AcDbEntity
  8
0
 62
     3
100
AcDbLine
 10
39.11388642029999
 20
175.9162292479999
 30
0.0
 11
39.11388642029999
 21
176.9853820799999
 31
0.0
  0
LINE
  5
9D
330
2
100
AcDbEntity
  8
0
 62
     3
100
AcDbLine
 10
39.36376434999997
 20
174.2000732422
 30
0.0
 11
38.61376434999996
 21
174.2000732422
 31
0.0
  0
LINE
  5
9E
330
2
100
AcDbEntity
  8
0
 62
     3
100
AcDbLine
 10
38.81377655699995
 20
174.7000732422
 30
0.0
 11
39.36376434999997
 21
174.7000732422
 31
0.0
  0
LINE
  5
9F
330
2
100
AcDbEntity
  8
0
 62
     3
100
AcDbLine
 10
38.71378583799998
 20
174.2000306051999
 30
0.0
 11
38.81378671049995
 21
174.7000314425999
 31
0.0
  0
LINE
  5
A0
330
2
100
AcDbEntity
  8
0
 62
     3
100
AcDbLine
 10
39.36376434999997
 20
174.9000701904
 30
0.0
 11
39.86376435
 21
174.9000701904
 31
0.0
  0
LINE
  5
A1
330
2
100
AcDbEntity
  8
0
 62
     3
100
AcDbLine
 10
40.11376434999997
 20
174.8945159912
 30
0.0
 11
40.11376434999997
 21
174.1999816894
 31
0.0
  0
LINE
  5
A2
330
2
100
AcDbEntity
  8
0
 62
     3
100
AcDbLine
 10
40.11374909119999
 20
174.1999359130999
 30
0.0
 11
40.11374909119999
 21
174.8946380615
 31
0.0
  0
ARC
  5
A3
330
2
100
AcDbEntity
  8
0
 62
     3
100
AcDbCircle
 10
42.11374909119999
 20
168.5
 30
0.0
 40
7.2999992371
100
AcDbArc
 50
339.9728300892998
 51
20.02713234470002
  0
LINE
  5
A4
330
2
100
AcDbEntity
  8
0
 62
     3
100
AcDbLine
 10
49.51377350519996
 20
165.4604034422999
 30
0.0
 11
49.51377350519996
 21
171.5398712157999
 31
0.0
  0
LINE
  5
A5
330
2
100
AcDbEntity
  8
0
 62
     3
100
AcDbLine
 10
45.51374298769994
 20
163.8001098632
 30
0.0
 11
45.51374298769994
 21
173.2001190185
 31
0.0
  0
LINE
  5
A6
330
2
100
AcDbEntity
  8
0
  6
DASH
 62
     3
100
AcDbLine
 10
47.11373383239996
 20
164.8000030517
 30
0.0
 11
47.11373383239996
 21
172.1999969481999
 31
0.0
  0
LINE
  5
A7
330
2
100
AcDbEntity
  8
0
 62
     3
100
AcDbLine
 10
46.3137307806
 20
164.8000030517
 30
0.0
 11
46.3137307806
 21
172.1999969481999
 31
0.0
  0
LINE
  5
A8
330
2
100
AcDbEntity
  8
0
 62
     3
100
AcDbLine
 10
47.96373993589997
 20
167.1000061034999
 30
0.0
 11
47.96373993589997
 21
169.9000091552
 31
0.0
  0
LINE
  5
A9
330
2
100
AcDbEntity
  8
0
 62
     3
100
AcDbLine
 10
48.46373993589998
 20
167.1000061034999
 30
0.0
 11
48.46373993589998
 21
169.9000091552
 31
0.0
  0
LINE
  5
AA
330
2
100
AcDbEntity
  8
0
 62
     3
100
AcDbLine
 10
46.31374603939995
 20
163.600112915
 30
0.0
 11
46.31374603939995
 21
173.2667846679
 31
0.0
  0
LINE
  5
AB
330
2
100
AcDbEntity
  8
0
 62
     3
100
AcDbLine
 10
51.11490875920001
 20
177.499923706
 30
0.0
 11
51.11490875920001
 21
159.5000610351
 31
0.0
  0
LINE
  5
AC
330
2
100
AcDbEntity
  8
0
 62
     3
100
AcDbLine
 10
54.11385590269995
 20
177.2000427245999
 30
0.0
 11
54.11385590269995
 21
159.8001861572
 31
0.0
  0
LINE
  5
AD
330
2
100
AcDbEntity
  8
0
 62
     3
100
AcDbLine
 10
43.4137368842
 20
163.8001098632
 30
0.0
 11
43.4137368842
 21
173.2001190185
 31
0.0
  0
LINE
  5
AE
330
2
100
AcDbEntity
  8
0
  6
CENTER
 62
     3
100
AcDbLine
 10
42.11387116149999
 20
157.2501220702999
 30
0.0
 11
42.11387116149999
 21
179.7500915526999
 31
0.0
  0
LINE
  5
AF
330
2
100
AcDbEntity
  8
0
 62
     3
100
AcDbLine
 10
48.78887712259999
 20
160.0500125714
 30
0.0
 11
50.61494099820001
 21
161.8439084078
 31
0.0
  0
LINE
  5
B0
330
2
100
AcDbEntity
  8
0
 62
     3
100
AcDbLine
 10
45.36376435
 20
163.0001525879
 30
0.0
 11
45.91375214289999
 21
163.0001525879
 31
0.0
  0
LINE
  5
B1
330
2
100
AcDbEntity
  8
0
 62
     3
100
AcDbLine
 10
45.9137368842
 20
163.0001220702999
 30
0.0
 11
43.81374603939995
 21
163.0001220702999
 31
0.0
  0
LINE
  5
B2
330
2
100
AcDbEntity
  8
0
 62
     3
100
AcDbLine
 10
43.81380707459999
 20
163.0
 30
0.0
 11
45.91378266049997
 21
163.0
 31
0.0
  0
LINE
  5
B3
330
2
100
AcDbEntity
  8
0
 62
     3
100
AcDbLine
 10
45.11387116149998
 20
160.0148162840999
 30
0.0
 11
45.11387116149998
 21
161.0837402342999
 31
0.0
  0
LINE
  5
B4
330
2
100
AcDbEntity
  8
0
 62
     3
100
AcDbLine
 10
45.51374298769994
 20
163.8001098632
 30
0.0
 11
43.4137368842
 21
163.8001098632
 31
0.0
  0
LINE
  5
B5
330
2
100
AcDbEntity
  8
0
 62
     3
100
AcDbLine
 10
43.81376129819995
 20
163.0001525879
 30
0.0
 11
44.86376434999999
 21
163.0001525879
 31
0.0
  0
LINE
  5
B6
330
2
100
AcDbEntity
  8
0
 62
     3
100
AcDbLine
 10
43.81374603939995
 20
163.0001220702999
 30
0.0
 11
43.81374603939995
 21
162.0192718506
 31
0.0
  0
LINE
  5
B7
330
2
100
AcDbEntity
  8
0
 62
     3
100
AcDbLine
 10
44.51380402279997
 20
163.4999694823999
 30
0.0
 11
44.51380402279997
 21
162.9999694823999
 31
0.0
  0
LINE
  5
B8
330
2
100
AcDbEntity
  8
0
 62
     3
100
AcDbLine
 10
43.81380707459999
 20
163.4999694823999
 30
0.0
 11
44.51380402279997
 21
163.4999694823999
 31
0.0
  0
LINE
  5
B9
330
2
100
AcDbEntity
  8
0
 62
     3
100
AcDbLine
 10
43.81380707459999
 20
162.9999694823999
 30
0.0
 11
43.81380707459999
 21
163.4999694823999
 31
0.0
  0
LINE
  5
BA
330
2
100
AcDbEntity
  8
0
 62
     3
100
AcDbLine
 10
43.81392914489999
 20
162.0193023680999
 30
0.0
 11
43.81392914489999
 21
163.0000152587999
 31
0.0
  0
LINE
  5
BB
330
2
100
AcDbEntity
  8
0
 62
     3
100
AcDbLine
 10
43.81379181579998
 20
162.9998016356999
 30
0.0
 11
43.81379181579998
 21
162.0189666747999
 31
0.0
  0
LINE
  5
BC
330
2
100
AcDbEntity
  8
0
 62
     3
100
AcDbLine
 10
47.61386692349995
 20
164.799969546
 30
0.0
 11
47.11379062949998
 21
164.8000887552999
 31
0.0
  0
LINE
  5
BD
330
2
100
AcDbEntity
  8
0
 62
     3
100
AcDbLine
 10
47.61373383239996
 20
164.8000030517
 30
0.0
 11
46.3137307806
 21
164.8000030517
 31
0.0
  0
LINE
  5
BE
330
2
100
AcDbEntity
  8
0
 62
     3
100
AcDbLine
 10
45.91375040319999
 20
163.0000894701
 30
0.0
 11
47.11375092369999
 21
164.8000883167
 31
0.0
  0
LINE
  5
BF
330
2
100
AcDbEntity
  8
0
 62
     3
100
AcDbLine
 10
48.11378893649996
 20
165.9997964928
 30
0.0
 11
47.61382015719999
 21
164.7999289576999
 31
0.0
  0
LINE
  5
C0
330
2
100
AcDbEntity
  8
0
 62
     3
100
AcDbLine
 10
48.46373993589998
 20
167.1000061034999
 30
0.0
 11
47.96373993589997
 21
167.1000061034999
 31
0.0
  0
LINE
  5
C1
330
2
100
AcDbEntity
  8
0
  6
DASH
 62
     3
100
AcDbLine
 10
48.11373383239999
 20
166.0
 30
0.0
 11
48.11373383239999
 21
167.1000061034999
 31
0.0
  0
LINE
  5
C2
330
2
100
AcDbEntity
  8
0
 62
     3
100
AcDbLine
 10
48.11378009619997
 20
165.9999237175999
 30
0.0
 11
47.61377933959997
 21
164.7999207396999
 31
0.0
  0
LINE
  5
C3
330
2
100
AcDbEntity
  8
0
 62
     3
100
AcDbLine
 10
48.11373383239999
 20
165.9998779296999
 30
0.0
 11
48.97226959899999
 21
165.9998779296999
 31
0.0
  0
LINE
  5
C4
330
2
100
AcDbEntity
  8
0
 62
     3
100
AcDbLine
 10
48.11373383239999
 20
166.0
 30
0.0
 11
48.97231537539997
 21
166.0
 31
0.0
  0
LINE
  5
C5
330
2
100
AcDbEntity
  8
0
 62
     3
100
AcDbLine
 10
49.52990204529999
 20
165.5001068115
 30
0.0
 11
50.59913117129998
 21
165.5001068115
 31
0.0
  0
LINE
  5
C6
330
2
100
AcDbEntity
  8
0
 62
     3
100
AcDbLine
 10
53.81390053469999
 20
159.500176117
 30
0.0
 11
54.11389415179996
 21
159.8001702146
 31
0.0
  0
LINE
  5
C7
330
2
100
AcDbEntity
  8
0
 62
     3
100
AcDbLine
 10
50.61495632489997
 20
175.1560619389
 30
0.0
 11
48.78887444169999
 21
176.9500049604
 31
0.0
  0
LINE
  5
C8
330
2
100
AcDbEntity
  8
0
 62
     3
100
AcDbLine
 10
45.61373383239998
 20
174.2001190185
 30
0.0
 11
44.11373383239999
 21
174.2001190185
 31
0.0
  0
LINE
  5
C9
330
2
100
AcDbEntity
  8
0
 62
     3
100
AcDbLine
 10
45.51374298769994
 20
173.2001190185
 30
0.0
 11
43.4137368842
 21
173.2001190185
 31
0.0
  0
LINE
  5
CA
330
2
100
AcDbEntity
  8
0
 62
     3
100
AcDbLine
 10
45.11387116149998
 20
175.9162292479999
 30
0.0
 11
45.11387116149998
 21
176.9853820799999
 31
0.0
  0
LINE
  5
CB
330
2
100
AcDbEntity
  8
0
 62
     3
100
AcDbLine
 10
44.11373383239999
 20
174.1999359130999
 30
0.0
 11
44.11373383239999
 21
174.8946380615
 31
0.0
  0
LINE
  5
CC
330
2
100
AcDbEntity
  8
0
 62
     3
100
AcDbLine
 10
47.11378687679996
 20
172.2000672176999
 30
0.0
 11
45.61383259359994
 21
174.2000062123
 31
0.0
  0
LINE
  5
CD
330
2
100
AcDbEntity
  8
0
 62
     3
100
AcDbLine
 10
47.11373383239996
 20
172.1999359131
 30
0.0
 11
47.61373383239996
 21
172.1999359131
 31
0.0
  0
LINE
  5
CE
330
2
100
AcDbEntity
  8
0
 62
     3
100
AcDbLine
 10
47.71373993589998
 20
168.3999938964
 30
0.0
 11
46.51374298769994
 21
168.3999938964
 31
0.0
  0
LINE
  5
CF
330
2
100
AcDbEntity
  8
0
 62
     3
100
AcDbLine
 10
47.71373993589998
 20
168.6000061034999
 30
0.0
 11
46.51374298769994
 21
168.6000061034999
 31
0.0
  0
LINE
  5
D0
330
2
100
AcDbEntity
  8
0
 62
     3
100
AcDbLine
 10
47.61373383239996
 20
172.1999969481999
 30
0.0
 11
46.3137307806
 21
172.1999969481999
 31
0.0
  0
ARC
  5
D1
330
2
100
AcDbEntity
  8
0
 62
     3
100
AcDbCircle
 10
46.51374298769994
 20
168.5
 30
0.0
 40
0.099999964237
100
AcDbArc
 50
89.99992737239997
 51
179.9998547448
  0
ARC
  5
D2
330
2
100
AcDbEntity
  8
0
 62
     3
100
AcDbCircle
 10
46.51374298769994
 20
168.5
 30
0.0
 40
0.099999964237
100
AcDbArc
 50
180.0000906136999
 51
270.0000726275999
  0
ARC
  5
D3
330
2
100
AcDbEntity
  8
0
 62
     3
100
AcDbCircle
 10
47.71373993589998
 20
168.5
 30
0.0
 40
0.099999964237
100
AcDbArc
 50
270.0000726275999
 51
89.99987273089994
  0
LINE
  5
D4
330
2
100
AcDbEntity
  8
0
 62
     3
100
AcDbLine
 10
48.46383148859999
 20
167.7999267577999
 30
0.0
 11
48.81371552179996
 21
167.7999267577999
 31
0.0
  0
LINE
  5
D5
330
2
100
AcDbEntity
  8
0
 62
     3
100
AcDbLine
 10
48.46383148859999
 20
169.1999359131
 30
0.0
 11
48.81371552179996
 21
169.1999359131
 31
0.0
  0
LINE
  5
D6
330
2
100
AcDbEntity
  8
0
 62
     3
100
AcDbLine
 10
47.61385839529999
 20
172.1999316128
 30
0.0
 11
48.1138474917
 21
170.999956805
 31
0.0
  0
LINE
  5
D7
330
2
100
AcDbEntity
  8
0
 62
     3
100
AcDbLine
 10
48.8137307806
 20
169.1999969481999
 30
0.0
 11
48.46373993589998
 21
169.1999969481999
 31
0.0
  0
LINE
  5
D8
330
2
100
AcDbEntity
  8
0
 62
     3
100
AcDbLine
 10
48.8137307806
 20
167.8000030516999
 30
0.0
 11
48.46373993589998
 21
167.8000030516999
 31
0.0
  0
LINE
  5
D9
330
2
100
AcDbEntity
  8
0
 62
     3
100
AcDbLine
 10
48.8137307806
 20
167.7999267577999
 30
0.0
 11
48.8137307806
 21
169.1999969481999
 31
0.0
  0
LINE
  5
DA
330
2
100
AcDbEntity
  8
0
 62
     3
100
AcDbLine
 10
48.11379268609996
 20
171.0000092132999
 30
0.0
 11
47.61382080849998
 21
172.1999416111
 31
0.0
  0
LINE
  5
DB
330
2
100
AcDbEntity
  8
0
  6
DASH
 62
     3
100
AcDbLine
 10
48.11373383239999
 20
169.8999938964
 30
0.0
 11
48.11373383239999
 21
171.0
 31
0.0
  0
LINE
  5
DC
330
2
100
AcDbEntity
  8
0
 62
     3
100
AcDbLine
 10
48.46373993589998
 20
169.9000091552
 30
0.0
 11
47.96373993589997
 21
169.9000091552
 31
0.0
  0
LINE
  5
DD
330
2
100
AcDbEntity
  8
0
 62
     3
100
AcDbLine
 10
48.11373383239999
 20
170.9998626708999
 30
0.0
 11
48.9723611517
 21
170.9998626708999
 31
0.0
  0
LINE
  5
DE
330
2
100
AcDbEntity
  8
0
 62
     3
100
AcDbLine
 10
48.11373383239999
 20
171.0
 30
0.0
 11
48.97231537539997
 21
171.0
 31
0.0
  0
LINE
  5
DF
330
2
100
AcDbEntity
  8
0
 62
     3
100
AcDbLine
 10
49.52990204529999
 20
171.5000762938999
 30
0.0
 11
50.59913117129998
 21
171.5000762938999
 31
0.0
  0
LINE
  5
E0
330
2
100
AcDbEntity
  8
0
 62
     3
100
AcDbLine
 10
53.81389798039998
 20
177.5000228900999
 30
0.0
 11
54.11390276639997
 21
177.2000184075
 31
0.0
  0
LINE
  5
E1
330
2
100
AcDbEntity
  8
0
 62
     3
100
AcDbLine
 10
71.11490875920002
 20
177.499923706
 30
0.0
 11
71.11490875920002
 21
159.5000610351
 31
0.0
  0
LINE
  5
E2
330
2
100
AcDbEntity
  8
0
 62
     3
100
AcDbLine
 10
68.11410004329998
 20
177.2000122069999
 30
0.0
 11
68.11410004329998
 21
159.8000030517
 31
0.0
  0
LINE
  5
E3
330
2
100
AcDbEntity
  8
0
 62
     3
100
AcDbLine
 10
68.41405772779999
 20
159.5000418449
 30
0.0
 11
68.11406373139999
 21
159.8000355631999
 31
0.0
  0
LINE
  5
E4
330
2
100
AcDbEntity
  8
0
 62
     3
100
AcDbLine
 10
68.41421224929996
 20
177.4998154881999
 30
0.0
 11
68.11421827819998
 21
177.1998217446
 31
0.0
  0
ARC
  5
E5
330
2
100
AcDbEntity
  8
0
 62
     3
100
AcDbCircle
 10
76.4057565375
 20
168.5001373291
 30
0.0
 40
6.608330726599997
100
AcDbArc
 50
347.769026574
 51
12.23099050149996
  0
ARC
  5
E6
330
2
100
AcDbEntity
  8
0
 62
     3
100
AcDbCircle
 10
89.8224130316
 20
168.5001373291
 30
0.0
 40
6.608330726599997
100
AcDbArc
 50
167.7689530357999
 51
192.2309203783
  0
LINE
  5
E7
330
2
100
AcDbEntity
  8
0
 62
     3
100
AcDbLine
 10
83.36411530209998
 20
167.1001281737999
 30
0.0
 11
83.36411530209998
 21
169.9001007079999
 31
0.0
  0
LINE
  5
E8
330
2
100
AcDbEntity
  8
0
 62
     3
100
AcDbLine
 10
82.86411530209997
 20
167.1001281737999
 30
0.0
 11
82.86411530209997
 21
169.9001007079999
 31
0.0
  0
LINE
  5
E9
330
2
100
AcDbEntity
  8
0
  6
DASH
 62
     3
100
AcDbLine
 10
85.11406952579998
 20
164.8000183104999
 30
0.0
 11
85.11406952579998
 21
172.2000122069999
 31
0.0
  0
LINE
  5
EA
330
2
100
AcDbEntity
  8
0
 62
     3
100
AcDbLine
 10
85.96407562929995
 20
167.1000213622999
 30
0.0
 11
85.96407562929995
 21
169.900024414
 31
0.0
  0
LINE
  5
EB
330
2
100
AcDbEntity
  8
0
 62
     3
100
AcDbLine
 10
84.31406647399999
 20
163.600112915
 30
0.0
 11
84.31406647399999
 21
173.2667541504
 31
0.0
  0
ARC
  5
EC
330
2
100
AcDbEntity
  8
0
 62
     3
100
AcDbCircle
 10
70.9057565375
 20
168.5001373291
 30
0.0
 40
6.608330726599997
100
AcDbArc
 50
347.769026574
 51
12.23099050149996
  0
ARC
  5
ED
330
2
100
AcDbEntity
  8
0
 62
     3
100
AcDbCircle
 10
84.32241303159999
 20
168.5001373291
 30
0.0
 40
6.608330726599997
100
AcDbArc
 50
167.7689530357999
 51
192.2309203783
  0
LINE
  5
EE
330
2
100
AcDbEntity
  8
0
 62
     3
100
AcDbLine
 10
77.86411530209997
 20
167.1001281737999
 30
0.0
 11
77.86411530209997
 21
169.9001007079999
 31
0.0
  0
LINE
  5
EF
330
2
100
AcDbEntity
  8
0
 62
     3
100
AcDbLine
 10
77.36411530209998
 20
167.1001281737999
 30
0.0
 11
77.36411530209998
 21
169.9001007079999
 31
0.0
  0
LINE
  5
F0
330
2
100
AcDbEntity
  8
0
  6
DASH
 62
     3
100
AcDbLine
 10
75.11408478449999
 20
172.1999969481999
 30
0.0
 11
75.11408478449999
 21
164.8000183104999
 31
0.0
  0
LINE
  5
F1
330
2
100
AcDbEntity
  8
0
 62
     3
100
AcDbLine
 10
78.81409699159998
 20
173.2667846679
 30
0.0
 11
78.81409699159998
 21
163.6001281737999
 31
0.0
  0
LINE
  5
F2
330
2
100
AcDbEntity
  8
0
 62
     3
100
AcDbLine
 10
75.91408783629998
 20
173.2663574217999
 30
0.0
 11
75.91408783629998
 21
163.6001586914
 31
0.0
  0
LINE
  5
F3
330
2
100
AcDbEntity
  8
0
 62
     3
100
AcDbLine
 10
81.41408783629998
 20
173.2663574217999
 30
0.0
 11
81.41408783629998
 21
163.6001586914
 31
0.0
  0
LINE
  5
F4
330
2
100
AcDbEntity
  8
0
  6
CENTER
 62
     3
100
AcDbLine
 10
80.1141000433
 20
157.2500152587999
 30
0.0
 11
80.1141000433
 21
179.7499847412
 31
0.0
  0
ARC
  5
F5
330
2
100
AcDbEntity
  8
0
 62
     3
100
AcDbCircle
 10
80.11408478449999
 20
168.5000152587999
 30
0.0
 40
7.2999992371
100
AcDbArc
 50
159.9727565511
 51
200.0271168631
  0
LINE
  5
F6
330
2
100
AcDbEntity
  8
0
 62
     3
100
AcDbLine
 10
72.71409088809996
 20
165.4602966307999
 30
0.0
 11
72.71409088809996
 21
171.5397644043
 31
0.0
  0
LINE
  5
F7
330
2
100
AcDbEntity
  8
0
 62
     3
100
AcDbLine
 10
74.26409393979999
 20
169.9000091552
 30
0.0
 11
74.26409393979999
 21
167.1000213622999
 31
0.0
  0
LINE
  5
F8
330
2
100
AcDbEntity
  8
0
 62
     3
100
AcDbLine
 10
73.76409393979996
 20
169.9000091552
 30
0.0
 11
73.76409393979996
 21
167.1000213622999
 31
0.0
  0
ARC
  5
F9
330
2
100
AcDbEntity
  8
0
 62
     3
100
AcDbCircle
 10
80.11408478449999
 20
168.5001373291
 30
0.0
 40
6.6999959946
100
AcDbArc
 50
255.3432516499
 51
284.6984757969
  0
LINE
  5
FA
330
2
100
AcDbEntity
  8
0
 62
     3
100
AcDbLine
 10
75.1141771156
 20
164.7998793960999
 30
0.0
 11
76.31412302949995
 21
162.9999725164999
 31
0.0
  0
LINE
  5
FB
330
2
100
AcDbEntity
  8
0
 62
     3
100
AcDbLine
 10
75.91408783629998
 20
164.8000183104999
 30
0.0
 11
74.6140847845
 21
164.8000183104999
 31
0.0
  0
LINE
  5
FC
330
2
100
AcDbEntity
  8
0
 62
     3
100
AcDbLine
 10
71.61494960789998
 20
161.8439451399
 30
0.0
 11
73.44113789479997
 21
160.050023582
 31
0.0
  0
LINE
  5
FD
330
2
100
AcDbEntity
  8
0
 62
     3
100
AcDbLine
 10
73.25551850039997
 20
166.0000152587999
 30
0.0
 11
74.1141000433
 21
166.0000152587999
 31
0.0
  0
LINE
  5
FE
330
2
100
AcDbEntity
  8
0
 62
     3
100
AcDbLine
 10
71.62880951599999
 20
165.5000152587999
 30
0.0
 11
72.69782501889999
 21
165.5000152587999
 31
0.0
  0
LINE
  5
FF
330
2
100
AcDbEntity
  8
0
 62
     3
100
AcDbLine
 10
74.26409393979999
 20
167.1000213622999
 30
0.0
 11
73.76409393979996
 21
167.1000213622999
 31
0.0
  0
LINE
  5
100
330
2
100
AcDbEntity
  8
0
  6
DASH
 62
     3
100
AcDbLine
 10
74.1141000433
 20
167.1000213622999
 30
0.0
 11
74.1141000433
 21
166.0000152587999
 31
0.0
  0
LINE
  5
101
330
2
100
AcDbEntity
  8
0
 62
     3
100
AcDbLine
 10
74.61411602859995
 20
164.8000061093999
 30
0.0
 11
74.11412106329997
 21
165.9999950023
 31
0.0
  0
LINE
  5
102
330
2
100
AcDbEntity
  8
0
 62
     3
100
AcDbLine
 10
77.11411530209997
 20
160.0147247314
 30
0.0
 11
77.11411530209997
 21
161.0836486815999
 31
0.0
  0
LINE
  5
103
330
2
100
AcDbEntity
  8
0
 62
     3
100
AcDbLine
 10
76.81411225039997
 20
162.5001831053999
 30
0.0
 11
77.36411530209998
 21
162.5001831053999
 31
0.0
  0
LINE
  5
104
330
2
100
AcDbEntity
  8
0
 62
     3
100
AcDbLine
 10
76.31411225039997
 20
163.0001831054
 30
0.0
 11
77.36411530209998
 21
163.0001831054
 31
0.0
  0
LINE
  5
105
330
2
100
AcDbEntity
  8
0
 62
     3
100
AcDbLine
 10
76.71413798359998
 20
163.0001365545999
 30
0.0
 11
76.81414148399999
 21
162.5001206636
 31
0.0
  0
ARC
  5
106
330
2
100
AcDbEntity
  8
0
 62
     3
100
AcDbCircle
 10
70.90598541929998
 20
163.5002288818
 30
0.0
 40
6.6081047058
100
AcDbArc
 50
347.7685894419
 51
12.23099050149996
  0
ARC
  5
107
330
2
100
AcDbEntity
  8
0
 62
     3
100
AcDbCircle
 10
84.32218414979997
 20
163.5002288818
 30
0.0
 40
6.6081047058
100
AcDbArc
 50
167.7689530357999
 51
192.2313575105
  0
LINE
  5
108
330
2
100
AcDbEntity
  8
0
 62
     3
100
AcDbLine
 10
77.86411530209997
 20
162.5001831053999
 30
0.0
 11
77.91411835389998
 21
162.5001831053999
 31
0.0
  0
LINE
  5
109
330
2
100
AcDbEntity
  8
0
 62
     3
100
AcDbLine
 10
77.86411530209997
 20
163.0001831054
 30
0.0
 11
78.41410309509999
 21
163.0001831054
 31
0.0
  0
LINE
  5
10A
330
2
100
AcDbEntity
  8
0
 62
     3
100
AcDbLine
 10
77.86411530209997
 20
164.9001617430999
 30
0.0
 11
77.86411530209997
 21
162.1002349853
 31
0.0
  0
LINE
  5
10B
330
2
100
AcDbEntity
  8
0
 62
     3
100
AcDbLine
 10
77.36411530209998
 20
164.9001617430999
 30
0.0
 11
77.36411530209998
 21
162.1002349853
 31
0.0
  0
LINE
  5
10C
330
2
100
AcDbEntity
  8
0
 62
     3
100
AcDbLine
 10
77.36411530209998
 20
167.1001281737999
 30
0.0
 11
77.86411530209997
 21
167.1001281737999
 31
0.0
  0
LINE
  5
10D
330
2
100
AcDbEntity
  8
0
 62
     3
100
AcDbLine
 10
77.36411530209998
 20
164.9001617430999
 30
0.0
 11
77.86411530209997
 21
164.9001617430999
 31
0.0
  0
LINE
  5
10E
330
2
100
AcDbEntity
  8
0
 62
     3
100
AcDbLine
 10
77.36411530209998
 20
162.1002349853
 30
0.0
 11
77.86411530209997
 21
162.1002349853
 31
0.0
  0
LINE
  5
10F
330
2
100
AcDbEntity
  8
0
 62
     3
100
AcDbLine
 10
77.91412987209998
 20
162.5001941158999
 30
0.0
 11
78.0141333725
 21
163.0002100069
 31
0.0
  0
LINE
  5
110
330
2
100
AcDbEntity
  8
0
 62
     3
100
AcDbLine
 10
78.41411835389997
 20
162.9998474121
 30
0.0
 11
78.41411835389997
 21
162.0190124510999
 31
0.0
  0
LINE
  5
111
330
2
100
AcDbEntity
  8
0
 62
     3
100
AcDbLine
 10
78.41407059389998
 20
163.0001166175999
 30
0.0
 11
78.81407320189999
 21
163.6001207231
 31
0.0
  0
LINE
  5
112
330
2
100
AcDbEntity
  8
0
 62
     3
100
AcDbLine
 10
82.31411225039996
 20
162.5001831053999
 30
0.0
 11
82.86411530209997
 21
162.5001831053999
 31
0.0
  0
LINE
  5
113
330
2
100
AcDbEntity
  8
0
 62
     3
100
AcDbLine
 10
81.81411225039997
 20
163.0001831054
 30
0.0
 11
82.86411530209997
 21
163.0001831054
 31
0.0
  0
LINE
  5
114
330
2
100
AcDbEntity
  8
0
 62
     3
100
AcDbLine
 10
82.21413391639998
 20
163.0001339770999
 30
0.0
 11
82.31413741669998
 21
162.5001180861
 31
0.0
  0
LINE
  5
115
330
2
100
AcDbEntity
  8
0
 62
     3
100
AcDbLine
 10
81.81410452019996
 20
163.0001436929999
 30
0.0
 11
81.41410169729999
 21
163.6001476695
 31
0.0
  0
LINE
  5
116
330
2
100
AcDbEntity
  8
0
 62
     3
100
AcDbLine
 10
81.81412750920001
 20
162.9998474121
 30
0.0
 11
81.81412750920001
 21
162.0190124510999
 31
0.0
  0
LINE
  5
117
330
2
100
AcDbEntity
  8
0
 62
     3
100
AcDbLine
 10
83.11410004329998
 20
160.0147247314
 30
0.0
 11
83.11410004329998
 21
161.0836486815999
 31
0.0
  0
LINE
  5
118
330
2
100
AcDbEntity
  8
0
 62
     3
100
AcDbLine
 10
85.61406952579998
 20
164.8000183104999
 30
0.0
 11
84.31406647399999
 21
164.8000183104999
 31
0.0
  0
LINE
  5
119
330
2
100
AcDbEntity
  8
0
 62
     3
100
AcDbLine
 10
83.91405901329997
 20
163.0000962757999
 30
0.0
 11
85.11406683739998
 21
164.8001085921
 31
0.0
  0
ARC
  5
11A
330
2
100
AcDbEntity
  8
0
 62
     3
100
AcDbCircle
 10
76.40598541929998
 20
163.5002288818
 30
0.0
 40
6.6081047058
100
AcDbArc
 50
347.7685894419
 51
12.23099050149996
  0
ARC
  5
11B
330
2
100
AcDbEntity
  8
0
 62
     3
100
AcDbCircle
 10
89.8221841498
 20
163.5002288818
 30
0.0
 40
6.6081047058
100
AcDbArc
 50
167.7689530357999
 51
192.2313575105
  0
LINE
  5
11C
330
2
100
AcDbEntity
  8
0
 62
     3
100
AcDbLine
 10
83.36411530209998
 20
162.5001831053999
 30
0.0
 11
83.41411835389996
 21
162.5001831053999
 31
0.0
  0
LINE
  5
11D
330
2
100
AcDbEntity
  8
0
 62
     3
100
AcDbLine
 10
83.36411530209998
 20
164.9001617430999
 30
0.0
 11
83.36411530209998
 21
162.1002349853
 31
0.0
  0
LINE
  5
11E
330
2
100
AcDbEntity
  8
0
 62
     3
100
AcDbLine
 10
82.86411530209997
 20
164.9001617430999
 30
0.0
 11
82.86411530209997
 21
162.1002349853
 31
0.0
  0
LINE
  5
11F
330
2
100
AcDbEntity
  8
0
 62
     3
100
AcDbLine
 10
82.86411530209997
 20
167.1001281737999
 30
0.0
 11
83.36411530209998
 21
167.1001281737999
 31
0.0
  0
LINE
  5
120
330
2
100
AcDbEntity
  8
0
 62
     3
100
AcDbLine
 10
82.86411530209997
 20
164.9001617430999
 30
0.0
 11
83.36411530209998
 21
164.9001617430999
 31
0.0
  0
LINE
  5
121
330
2
100
AcDbEntity
  8
0
 62
     3
100
AcDbLine
 10
82.86411530209997
 20
162.1002349853
 30
0.0
 11
83.36411530209998
 21
162.1002349853
 31
0.0
  0
LINE
  5
122
330
2
100
AcDbEntity
  8
0
 62
     3
100
AcDbLine
 10
83.41412281229997
 20
162.5001817309
 30
0.0
 11
83.51412631269997
 21
163.0001976218999
 31
0.0
  0
LINE
  5
123
330
2
100
AcDbEntity
  8
0
 62
     3
100
AcDbLine
 10
83.3641000433
 20
163.0001831054
 30
0.0
 11
83.91410309509998
 21
163.0001831054
 31
0.0
  0
LINE
  5
124
330
2
100
AcDbEntity
  8
0
  6
DASH
 62
     3
100
AcDbLine
 10
86.11406952579995
 20
166.0000152587999
 30
0.0
 11
86.11406952579995
 21
167.1000213622999
 31
0.0
  0
LINE
  5
125
330
2
100
AcDbEntity
  8
0
 62
     3
100
AcDbLine
 10
86.1141162508
 20
165.9998256568
 30
0.0
 11
85.61414747159998
 21
164.7999581217999
 31
0.0
  0
LINE
  5
126
330
2
100
AcDbEntity
  8
0
 62
     3
100
AcDbLine
 10
86.11410091589998
 20
165.9999232866999
 30
0.0
 11
85.61410602809997
 21
164.7999343938
 31
0.0
  0
ARC
  5
127
330
2
100
AcDbEntity
  8
0
 62
     3
100
AcDbCircle
 10
80.11408478449999
 20
168.5001373291
 30
0.0
 40
6.6999959946
100
AcDbArc
 50
72.6320130679
 51
107.3679509599999
  0
LINE
  5
128
330
2
100
AcDbEntity
  8
0
 62
     3
100
AcDbLine
 10
75.71409088809996
 20
168.4000091551999
 30
0.0
 11
75.21409088809996
 21
168.4000091551999
 31
0.0
  0
LINE
  5
129
330
2
100
AcDbEntity
  8
0
 62
     3
100
AcDbLine
 10
75.71409088809996
 20
168.6000213623
 30
0.0
 11
75.21409088809996
 21
168.6000213623
 31
0.0
  0
LINE
  5
12A
330
2
100
AcDbEntity
  8
0
 62
     3
100
AcDbLine
 10
75.11426130799998
 20
172.1998163376999
 30
0.0
 11
76.61426121859999
 21
174.1998163674999
 31
0.0
  0
LINE
  5
12B
330
2
100
AcDbEntity
  8
0
 62
     3
100
AcDbLine
 10
75.91408783629998
 20
172.2000122069999
 30
0.0
 11
74.6140847845
 21
172.2000122069999
 31
0.0
  0
LINE
  5
12C
330
2
100
AcDbEntity
  8
0
 62
     3
100
AcDbLine
 10
73.41405731869997
 20
167.7999420166
 30
0.0
 11
73.76410919859998
 21
167.7999420166
 31
0.0
  0
LINE
  5
12D
330
2
100
AcDbEntity
  8
0
 62
     3
100
AcDbLine
 10
73.41405731869997
 20
169.1999511718
 30
0.0
 11
73.76410919859998
 21
169.1999511718
 31
0.0
  0
LINE
  5
12E
330
2
100
AcDbEntity
  8
0
 62
     3
100
AcDbLine
 10
73.76409393979996
 20
169.2000122069999
 30
0.0
 11
73.41410309509999
 21
169.2000122069999
 31
0.0
  0
LINE
  5
12F
330
2
100
AcDbEntity
  8
0
 62
     3
100
AcDbLine
 10
73.76409393979996
 20
167.8000183104999
 30
0.0
 11
73.41410309509999
 21
167.8000183104999
 31
0.0
  0
LINE
  5
130
330
2
100
AcDbEntity
  8
0
 62
     3
100
AcDbLine
 10
73.25551850039997
 20
171.0000152587999
 30
0.0
 11
74.1141000433
 21
171.0000152587999
 31
0.0
  0
LINE
  5
131
330
2
100
AcDbEntity
  8
0
 62
     3
100
AcDbLine
 10
73.41407257749998
 20
169.1999511718
 30
0.0
 11
73.41407257749998
 21
167.7999420166
 31
0.0
  0
LINE
  5
132
330
2
100
AcDbEntity
  8
0
 62
     3
100
AcDbLine
 10
73.41410309509999
 20
169.2000122069999
 30
0.0
 11
73.41410309509999
 21
167.8000183104999
 31
0.0
  0
LINE
  5
133
330
2
100
AcDbEntity
  8
0
 62
     3
100
AcDbLine
 10
71.62880951599999
 20
171.4999847411999
 30
0.0
 11
72.69782501889999
 21
171.4999847411999
 31
0.0
  0
ARC
  5
134
330
2
100
AcDbEntity
  8
0
 62
     3
100
AcDbCircle
 10
75.11408478449999
 20
169.1000061035
 30
0.0
 40
0.099999964237
100
AcDbArc
 50
0.0
 51
179.9998547448
  0
ARC
  5
135
330
2
100
AcDbEntity
  8
0
 62
     3
100
AcDbCircle
 10
75.11408478449999
 20
167.9000091552
 30
0.0
 40
0.099999964237
100
AcDbArc
 50
180.0000906136999
 51
0.0
  0
LINE
  5
136
330
2
100
AcDbEntity
  8
0
 62
     3
100
AcDbLine
 10
75.21409088809996
 20
169.1000061035
 30
0.0
 11
75.21409088809996
 21
168.6000061034999
 31
0.0
  0
LINE
  5
137
330
2
100
AcDbEntity
  8
0
 62
     3
100
AcDbLine
 10
75.01409393979996
 20
169.1000061035
 30
0.0
 11
75.01409393979996
 21
168.6000061034999
 31
0.0
  0
LINE
  5
138
330
2
100
AcDbEntity
  8
0
 62
     3
100
AcDbLine
 10
75.01409393979996
 20
168.4000091551999
 30
0.0
 11
75.01409393979996
 21
167.9000091552
 31
0.0
  0
LINE
  5
139
330
2
100
AcDbEntity
  8
0
 62
     3
100
AcDbLine
 10
75.21409088809996
 20
168.4000091551999
 30
0.0
 11
75.21409088809996
 21
167.9000091552
 31
0.0
  0
ARC
  5
13A
330
2
100
AcDbEntity
  8
0
 62
     3
100
AcDbCircle
 10
74.51409393979997
 20
168.5000152587999
 30
0.0
 40
0.099999964237
100
AcDbArc
 50
90.00003665540001
 51
270.0000006831999
  0
LINE
  5
13B
330
2
100
AcDbEntity
  8
0
 62
     3
100
AcDbLine
 10
74.61410927439995
 20
172.1999241662999
 30
0.0
 11
74.11410813049997
 21
170.9999213433999
 31
0.0
  0
LINE
  5
13C
330
2
100
AcDbEntity
  8
0
  6
DASH
 62
     3
100
AcDbLine
 10
74.1141000433
 20
171.0
 30
0.0
 11
74.1141000433
 21
169.9000091552
 31
0.0
  0
LINE
  5
13D
330
2
100
AcDbEntity
  8
0
 62
     3
100
AcDbLine
 10
74.26409393979999
 20
169.900024414
 30
0.0
 11
73.76409393979996
 21
169.900024414
 31
0.0
  0
LINE
  5
13E
330
2
100
AcDbEntity
  8
0
 62
     3
100
AcDbLine
 10
75.01409393979996
 20
168.6000213623
 30
0.0
 11
74.51409393979997
 21
168.6000213623
 31
0.0
  0
LINE
  5
13F
330
2
100
AcDbEntity
  8
0
 62
     3
100
AcDbLine
 10
75.01409393979996
 20
168.4000091551999
 30
0.0
 11
74.51409393979997
 21
168.4000091551999
 31
0.0
  0
LINE
  5
140
330
2
100
AcDbEntity
  8
0
 62
     3
100
AcDbLine
 10
73.44113341529999
 20
176.9499861721
 30
0.0
 11
71.61493800569998
 21
175.1560281223999
 31
0.0
  0
LINE
  5
141
330
2
100
AcDbEntity
  8
0
 62
     3
100
AcDbLine
 10
78.11419347589998
 20
174.1999333575
 30
0.0
 11
78.81416908959997
 21
173.2666325623999
 31
0.0
  0
ARC
  5
142
330
2
100
AcDbEntity
  8
0
 62
     3
100
AcDbCircle
 10
70.9057565375
 20
173.5001220702999
 30
0.0
 40
6.608330726599997
100
AcDbArc
 50
347.769026574
 51
12.23099050149996
  0
ARC
  5
143
330
2
100
AcDbEntity
  8
0
 62
     3
100
AcDbCircle
 10
84.32241303159999
 20
173.5001220702999
 30
0.0
 40
6.608330726599997
100
AcDbArc
 50
167.7689530357999
 51
192.2309203783
  0
LINE
  5
144
330
2
100
AcDbEntity
  8
0
 62
     3
100
AcDbLine
 10
77.86411530209997
 20
172.1000976561999
 30
0.0
 11
77.86411530209997
 21
174.900100708
 31
0.0
  0
LINE
  5
145
330
2
100
AcDbEntity
  8
0
 62
     3
100
AcDbLine
 10
77.36411530209998
 20
172.1000976561999
 30
0.0
 11
77.36411530209998
 21
174.900100708
 31
0.0
  0
ARC
  5
146
330
2
100
AcDbEntity
  8
0
 62
     3
100
AcDbCircle
 10
75.71409088809996
 20
168.5000152587999
 30
0.0
 40
0.099999964237
100
AcDbArc
 50
270.0000726275999
 51
89.9999273723999
  0
LINE
  5
147
330
2
100
AcDbEntity
  8
0
 62
     3
100
AcDbLine
 10
77.36411530209998
 20
172.1000976561999
 30
0.0
 11
77.86411530209997
 21
172.1000976561999
 31
0.0
  0
LINE
  5
148
330
2
100
AcDbEntity
  8
0
 62
     3
100
AcDbLine
 10
77.36411530209998
 20
169.9001007079999
 30
0.0
 11
77.86411530209997
 21
169.9001007079999
 31
0.0
  0
LINE
  5
149
330
2
100
AcDbEntity
  8
0
 62
     3
100
AcDbLine
 10
76.81411225039997
 20
174.7001037597
 30
0.0
 11
77.36411530209998
 21
174.7001037597
 31
0.0
  0
LINE
  5
14A
330
2
100
AcDbEntity
  8
0
 62
     3
100
AcDbLine
 10
77.36411530209998
 20
174.2001037597
 30
0.0
 11
76.61411530209997
 21
174.2001037597
 31
0.0
  0
LINE
  5
14B
330
2
100
AcDbEntity
  8
0
 62
     3
100
AcDbLine
 10
77.11411530209997
 20
175.9161376952999
 30
0.0
 11
77.11411530209997
 21
176.9852905272999
 31
0.0
  0
LINE
  5
14C
330
2
100
AcDbEntity
  8
0
 62
     3
100
AcDbLine
 10
76.71411713589998
 20
174.2000628675999
 30
0.0
 11
76.81411501589997
 21
174.7000487425
 31
0.0
  0
LINE
  5
14D
330
2
100
AcDbEntity
  8
0
 62
     3
100
AcDbLine
 10
77.86411530209997
 20
174.7001037597
 30
0.0
 11
77.91411835389998
 21
174.7001037597
 31
0.0
  0
LINE
  5
14E
330
2
100
AcDbEntity
  8
0
 62
     3
100
AcDbLine
 10
77.36411530209998
 20
174.900100708
 30
0.0
 11
77.86411530209997
 21
174.900100708
 31
0.0
  0
LINE
  5
14F
330
2
100
AcDbEntity
  8
0
 62
     3
100
AcDbLine
 10
77.91413283089998
 20
174.7000979053
 30
0.0
 11
78.01413370339997
 21
174.200097068
 31
0.0
  0
LINE
  5
150
330
2
100
AcDbEntity
  8
0
 62
     3
100
AcDbLine
 10
78.11411530209998
 20
174.2001037597
 30
0.0
 11
77.86411530209997
 21
174.2001037597
 31
0.0
  0
LINE
  5
151
330
2
100
AcDbEntity
  8
0
 62
     3
100
AcDbLine
 10
78.11408478449999
 20
174.1999511718
 30
0.0
 11
78.11408478449999
 21
174.8944091797
 31
0.0
  0
LINE
  5
152
330
2
100
AcDbEntity
  8
0
 62
     3
100
AcDbLine
 10
82.86411530209997
 20
174.2001037597
 30
0.0
 11
82.11411530209998
 21
174.2001037597
 31
0.0
  0
LINE
  5
153
330
2
100
AcDbEntity
  8
0
 62
     3
100
AcDbLine
 10
82.31411225039996
 20
174.7001037597
 30
0.0
 11
82.86411530209997
 21
174.7001037597
 31
0.0
  0
LINE
  5
154
330
2
100
AcDbEntity
  8
0
 62
     3
100
AcDbLine
 10
81.41410860679997
 20
173.2662899389999
 30
0.0
 11
82.11425867339997
 21
174.1998234306999
 31
0.0
  0
LINE
  5
155
330
2
100
AcDbEntity
  8
0
 62
     3
100
AcDbLine
 10
82.21411287569997
 20
174.2000613947
 30
0.0
 11
82.31411374830001
 21
174.7000622320999
 31
0.0
  0
LINE
  5
156
330
2
100
AcDbEntity
  8
0
 62
     3
100
AcDbLine
 10
82.1140695258
 20
174.1999511718
 30
0.0
 11
82.1140695258
 21
174.8944091797
 31
0.0
  0
ARC
  5
157
330
2
100
AcDbEntity
  8
0
 62
     3
100
AcDbCircle
 10
76.4057565375
 20
173.5001220702999
 30
0.0
 40
6.608330726599997
100
AcDbArc
 50
347.769026574
 51
12.23099050149996
  0
ARC
  5
158
330
2
100
AcDbEntity
  8
0
 62
     3
100
AcDbCircle
 10
89.8224130316
 20
173.5001220702999
 30
0.0
 40
6.608330726599997
100
AcDbArc
 50
167.7689530357999
 51
192.2309203783
  0
LINE
  5
159
330
2
100
AcDbEntity
  8
0
 62
     3
100
AcDbLine
 10
83.61416919299998
 20
174.1999303714
 30
0.0
 11
85.11413263149998
 21
172.1999791696999
 31
0.0
  0
LINE
  5
15A
330
2
100
AcDbEntity
  8
0
 62
     3
100
AcDbLine
 10
83.36411530209998
 20
172.1000976561999
 30
0.0
 11
83.36411530209998
 21
174.900100708
 31
0.0
  0
LINE
  5
15B
330
2
100
AcDbEntity
  8
0
 62
     3
100
AcDbLine
 10
82.86411530209997
 20
172.1000976561999
 30
0.0
 11
82.86411530209997
 21
174.900100708
 31
0.0
  0
LINE
  5
15C
330
2
100
AcDbEntity
  8
0
 62
     3
100
AcDbLine
 10
85.71407562929996
 20
168.4000091551999
 30
0.0
 11
84.51407868099996
 21
168.4000091551999
 31
0.0
  0
LINE
  5
15D
330
2
100
AcDbEntity
  8
0
 62
     3
100
AcDbLine
 10
85.71407562929996
 20
168.6000213623
 30
0.0
 11
84.51407868099996
 21
168.6000213623
 31
0.0
  0
LINE
  5
15E
330
2
100
AcDbEntity
  8
0
 62
     3
100
AcDbLine
 10
85.61406952579998
 20
172.2000122069999
 30
0.0
 11
84.31406647399999
 21
172.2000122069999
 31
0.0
  0
ARC
  5
15F
330
2
100
AcDbEntity
  8
0
 62
     3
100
AcDbCircle
 10
84.51407868099996
 20
168.5000152587999
 30
0.0
 40
0.099999964237
100
AcDbArc
 50
89.99992737239997
 51
179.9998547448
  0
ARC
  5
160
330
2
100
AcDbEntity
  8
0
 62
     3
100
AcDbCircle
 10
84.51407868099996
 20
168.5000152587999
 30
0.0
 40
0.099999964237
100
AcDbArc
 50
180.0000906136999
 51
270.0000726275999
  0
LINE
  5
161
330
2
100
AcDbEntity
  8
0
 62
     3
100
AcDbLine
 10
82.86411530209997
 20
172.1000976561999
 30
0.0
 11
83.36411530209998
 21
172.1000976561999
 31
0.0
  0
LINE
  5
162
330
2
100
AcDbEntity
  8
0
 62
     3
100
AcDbLine
 10
82.86411530209997
 20
169.9001007079999
 30
0.0
 11
83.36411530209998
 21
169.9001007079999
 31
0.0
  0
LINE
  5
163
330
2
100
AcDbEntity
  8
0
  6
DASH
 62
     3
100
AcDbLine
 10
86.11406952579995
 20
169.9000091552
 30
0.0
 11
86.11406952579995
 21
171.0
 31
0.0
  0
ARC
  5
164
330
2
100
AcDbEntity
  8
0
 62
     3
100
AcDbCircle
 10
85.71407562929996
 20
168.5000152587999
 30
0.0
 40
0.099999964237
100
AcDbArc
 50
270.0000726275999
 51
89.99987273089994
  0
LINE
  5
165
330
2
100
AcDbEntity
  8
0
 62
     3
100
AcDbLine
 10
85.61413122859997
 20
172.1999323739
 30
0.0
 11
86.11411445639999
 21
170.9999716509999
 31
0.0
  0
LINE
  5
166
330
2
100
AcDbEntity
  8
0
 62
     3
100
AcDbLine
 10
86.11408564749998
 20
171.0000139542
 30
0.0
 11
85.61411963869998
 21
172.1999322669
 31
0.0
  0
LINE
  5
167
330
2
100
AcDbEntity
  8
0
 62
     3
100
AcDbLine
 10
83.11410004329998
 20
175.9161376952999
 30
0.0
 11
83.11410004329998
 21
176.9852905272999
 31
0.0
  0
LINE
  5
168
330
2
100
AcDbEntity
  8
0
 62
     3
100
AcDbLine
 10
83.36411530209998
 20
174.7001037597
 30
0.0
 11
83.41411835389996
 21
174.7001037597
 31
0.0
  0
LINE
  5
169
330
2
100
AcDbEntity
  8
0
 62
     3
100
AcDbLine
 10
82.86411530209997
 20
174.900100708
 30
0.0
 11
83.36411530209998
 21
174.900100708
 31
0.0
  0
LINE
  5
16A
330
2
100
AcDbEntity
  8
0
 62
     3
100
AcDbLine
 10
83.41409864579999
 20
174.7000933930999
 30
0.0
 11
83.51409951839997
 21
174.2000925557999
 31
0.0
  0
LINE
  5
16B
330
2
100
AcDbEntity
  8
0
 62
     3
100
AcDbLine
 10
83.61411530209997
 20
174.2001037597
 30
0.0
 11
83.36411530209998
 21
174.2001037597
 31
0.0
  0
LINE
  5
16C
330
2
100
AcDbEntity
  8
0
 62
     3
100
AcDbLine
 10
117.8142800969999
 20
210.7501068114999
 30
0.0
 11
111.3172555608999
 21
210.7501068114999
 31
0.0
  0
LINE
  5
16D
330
2
100
AcDbEntity
  8
0
 62
     3
100
AcDbLine
 10
111.3172403020999
 20
211.2499694823998
 30
0.0
 11
117.8142800969999
 21
211.2499694823998
 31
0.0
  0
LINE
  5
16E
330
2
100
AcDbEntity
  8
0
 62
     3
100
AcDbLine
 10
117.8142800969999
 20
205.2501068114997
 30
0.0
 11
111.3172555608999
 21
205.2501068114997
 31
0.0
  0
LINE
  5
16F
330
2
100
AcDbEntity
  8
0
 62
     3
100
AcDbLine
 10
111.3172403020999
 20
205.7499847412
 30
0.0
 11
117.8142800969999
 21
205.7499847412
 31
0.0
  0
LINE
  5
170
330
2
100
AcDbEntity
  8
0
 62
     3
100
AcDbLine
 10
117.8177591008999
 20
169.9000396728
 30
0.0
 11
111.3206430120999
 21
169.9000396728
 31
0.0
  0
LINE
  5
171
330
2
100
AcDbEntity
  8
0
 62
     3
100
AcDbLine
 10
117.8177285833999
 20
167.1000366211
 30
0.0
 11
111.3206430120999
 21
167.1000366211
 31
0.0
  0
LINE
  5
172
330
2
100
AcDbEntity
  8
0
 62
     3
100
AcDbLine
 10
117.8177591008999
 20
164.8999633789
 30
0.0
 11
111.3206430120999
 21
164.8999633789
 31
0.0
  0
LINE
  5
173
330
2
100
AcDbEntity
  8
0
 62
     3
100
AcDbLine
 10
118.5177102727999
 20
162.0999603271
 30
0.0
 11
111.3206430120999
 21
162.0999603271
 31
0.0
  0
LINE
  5
174
330
2
100
AcDbEntity
  8
0
 62
     3
100
AcDbLine
 10
118.5177102727999
 20
174.8999481200999
 30
0.0
 11
111.3206430120999
 21
174.8999481200999
 31
0.0
  0
LINE
  5
175
330
2
100
AcDbEntity
  8
0
 62
     3
100
AcDbLine
 10
117.8177438421998
 20
172.0999450682999
 30
0.0
 11
111.3206430120999
 21
172.0999450682999
 31
0.0
  0
LINE
  5
176
330
2
100
AcDbEntity
  8
0
 62
     3
100
AcDbLine
 10
92.11408478450001
 20
177.1999359131
 30
0.0
 11
92.11408478450001
 21
159.8000793456999
 31
0.0
  0
ARC
  5
177
330
2
100
AcDbEntity
  8
0
 62
     3
100
AcDbCircle
 10
80.11408478449999
 20
168.5000152587999
 30
0.0
 40
7.2999992371
100
AcDbArc
 50
339.9728300892998
 51
20.02713234470002
  0
LINE
  5
178
330
2
100
AcDbEntity
  8
0
 62
     3
100
AcDbLine
 10
87.51400238709997
 20
165.4602966307999
 30
0.0
 11
87.51400238709997
 21
171.5397644043
 31
0.0
  0
LINE
  5
179
330
2
100
AcDbEntity
  8
0
 62
     3
100
AcDbLine
 10
86.46407562929997
 20
167.1000213622999
 30
0.0
 11
86.46407562929997
 21
169.900024414
 31
0.0
  0
LINE
  5
17A
330
2
100
AcDbEntity
  8
0
 62
     3
100
AcDbLine
 10
89.11492401789997
 20
177.499923706
 30
0.0
 11
89.11492401789997
 21
159.5000610351
 31
0.0
  0
LINE
  5
17B
330
2
100
AcDbEntity
  8
0
 62
     3
100
AcDbLine
 10
86.78883120469999
 20
160.0500073127
 30
0.0
 11
88.61488419529996
 21
161.8438924558
 31
0.0
  0
LINE
  5
17C
330
2
100
AcDbEntity
  8
0
 62
     3
100
AcDbLine
 10
87.53013092709998
 20
165.5000152587999
 30
0.0
 11
88.59936005309997
 21
165.5000152587999
 31
0.0
  0
LINE
  5
17D
330
2
100
AcDbEntity
  8
0
 62
     3
100
AcDbLine
 10
91.81410432069998
 20
159.5000662824999
 30
0.0
 11
92.11409793779996
 21
159.8000603800999
 31
0.0
  0
LINE
  5
17E
330
2
100
AcDbEntity
  8
0
 62
     3
100
AcDbLine
 10
87.53013092709998
 20
171.4999847411999
 30
0.0
 11
88.59936005309997
 21
171.4999847411999
 31
0.0
  0
LINE
  5
17F
330
2
100
AcDbEntity
  8
0
 62
     3
100
AcDbLine
 10
86.46416718199999
 20
167.7999420166
 30
0.0
 11
86.81405121519999
 21
167.7999420166
 31
0.0
  0
LINE
  5
180
330
2
100
AcDbEntity
  8
0
 62
     3
100
AcDbLine
 10
86.46416718199999
 20
169.1999511718
 30
0.0
 11
86.81405121519999
 21
169.1999511718
 31
0.0
  0
LINE
  5
181
330
2
100
AcDbEntity
  8
0
 62
     3
100
AcDbLine
 10
86.81406647399997
 20
169.2000122069999
 30
0.0
 11
86.46407562929997
 21
169.2000122069999
 31
0.0
  0
LINE
  5
182
330
2
100
AcDbEntity
  8
0
 62
     3
100
AcDbLine
 10
86.81406647399997
 20
167.8000183104999
 30
0.0
 11
86.46407562929997
 21
167.8000183104999
 31
0.0
  0
LINE
  5
183
330
2
100
AcDbEntity
  8
0
 62
     3
100
AcDbLine
 10
86.81406647399997
 20
167.7999420166
 30
0.0
 11
86.81406647399997
 21
169.2000122069999
 31
0.0
  0
LINE
  5
184
330
2
100
AcDbEntity
  8
0
 62
     3
100
AcDbLine
 10
88.61488817599996
 20
175.1560567646
 30
0.0
 11
86.78881717779999
 21
176.9499890926999
 31
0.0
  0
LINE
  5
185
330
2
100
AcDbEntity
  8
0
 62
     3
100
AcDbLine
 10
91.81411095439996
 20
177.4998910548999
 30
0.0
 11
92.1141049508
 21
177.1998973619
 31
0.0
  0
LINE
  5
186
330
2
100
AcDbEntity
  8
0
 62
     3
100
AcDbLine
 10
111.3206430120999
 20
169.9000396728
 30
0.0
 11
111.3206430120999
 21
167.1000366211
 31
0.0
  0
ARC
  5
187
330
2
100
AcDbEntity
  8
0
 62
     3
100
AcDbCircle
 10
113.0176950139998
 20
168.5000915526999
 30
0.0
 40
2.199997901899997
100
AcDbArc
 50
140.4787409617
 51
219.5211324524
  0
LINE
  5
188
330
2
100
AcDbEntity
  8
0
 62
     3
100
AcDbLine
 10
112.4206796331999
 20
162.8999633789
 30
0.0
 11
113.8206430120999
 21
162.8999633789
 31
0.0
  0
LINE
  5
189
330
2
100
AcDbEntity
  8
0
 62
     3
100
AcDbLine
 10
112.4206796331999
 20
164.0999603271
 30
0.0
 11
113.8206430120999
 21
164.0999603271
 31
0.0
  0
LINE
  5
18A
330
2
100
AcDbEntity
  8
0
  6
CENTER
 62
     3
100
AcDbLine
 10
109.9190316839999
 20
163.4999542236
 30
0.0
 11
115.2691751165999
 21
163.4999542236
 31
0.0
  0
LINE
  5
18B
330
2
100
AcDbEntity
  8
0
 62
     3
100
AcDbLine
 10
111.3206430120999
 20
164.8999633789
 30
0.0
 11
111.3206430120999
 21
162.0999603271
 31
0.0
  0
ARC
  5
18C
330
2
100
AcDbEntity
  8
0
 62
     3
100
AcDbCircle
 10
113.0177102727999
 20
163.5000152587999
 30
0.0
 40
2.199997901899997
100
AcDbArc
 50
140.4787956031999
 51
219.5211870939
  0
ARC
  5
18D
330
2
100
AcDbEntity
  8
0
 62
     3
100
AcDbCircle
 10
112.4206948919999
 20
163.5000152587999
 30
0.0
 40
0.599998951
100
AcDbArc
 50
89.99998201389999
 51
269.9998914002
  0
ARC
  5
18E
330
2
100
AcDbEntity
  8
0
 62
     3
100
AcDbCircle
 10
113.8206430120999
 20
163.5000152587999
 30
0.0
 40
0.599998951
100
AcDbArc
 50
270.0000726275999
 51
89.99998201389994
  0
LINE
  5
18F
330
2
100
AcDbEntity
  8
0
 62
     3
100
AcDbLine
 10
112.4206338567999
 20
174.0999450682999
 30
0.0
 11
113.8206430120999
 21
174.0999450682999
 31
0.0
  0
LINE
  5
190
330
2
100
AcDbEntity
  8
0
 62
     3
100
AcDbLine
 10
112.4206185979998
 20
167.9000396728
 30
0.0
 11
113.8206277532999
 21
167.9000396728
 31
0.0
  0
LINE
  5
191
330
2
100
AcDbEntity
  8
0
 62
     3
100
AcDbLine
 10
112.4206185979998
 20
169.1000366211
 30
0.0
 11
113.8206277532999
 21
169.1000366211
 31
0.0
  0
LINE
  5
192
330
2
100
AcDbEntity
  8
0
 62
     3
100
AcDbLine
 10
112.4206338567999
 20
172.8999481200999
 30
0.0
 11
113.8206430120999
 21
172.8999481200999
 31
0.0
  0
LINE
  5
193
330
2
100
AcDbEntity
  8
0
  6
CENTER
 62
     3
100
AcDbLine
 10
109.8010202092999
 20
173.4999389647999
 30
0.0
 11
115.2691751165999
 21
173.4999389647999
 31
0.0
  0
LINE
  5
194
330
2
100
AcDbEntity
  8
0
 62
     3
100
AcDbLine
 10
111.3206430120999
 20
174.8999481200999
 30
0.0
 11
111.3206430120999
 21
172.0999450682999
 31
0.0
  0
ARC
  5
195
330
2
100
AcDbEntity
  8
0
 62
     3
100
AcDbCircle
 10
113.0177102727999
 20
173.5
 30
0.0
 40
2.199997901899997
100
AcDbArc
 50
140.4787409617
 51
219.5211324524
  0
ARC
  5
196
330
2
100
AcDbEntity
  8
0
 62
     3
100
AcDbCircle
 10
112.4206491155999
 20
173.5
 30
0.0
 40
0.599998951
100
AcDbArc
 50
89.99998201389999
 51
269.9998914002
  0
ARC
  5
197
330
2
100
AcDbEntity
  8
0
 62
     3
100
AcDbCircle
 10
112.4206338567999
 20
168.5000915526999
 30
0.0
 40
0.599998951
100
AcDbArc
 50
89.99998201389999
 51
269.9998914002
  0
ARC
  5
198
330
2
100
AcDbEntity
  8
0
 62
     3
100
AcDbCircle
 10
113.8206430120999
 20
173.5
 30
0.0
 40
0.599998951
100
AcDbArc
 50
270.0000726275999
 51
89.99998201389994
  0
ARC
  5
199
330
2
100
AcDbEntity
  8
0
 62
     3
100
AcDbCircle
 10
113.8206277532999
 20
168.5000915526999
 30
0.0
 40
0.599998951
100
AcDbArc
 50
270.0000726275999
 51
89.99998201389994
  0
LINE
  5
19A
330
2
100
AcDbEntity
  8
0
 62
     3
100
AcDbLine
 10
110.8170338488998
 20
205.6005055777999
 30
0.0
 11
111.3166422289999
 21
205.7503880389999
 31
0.0
  0
LINE
  5
19B
330
2
100
AcDbEntity
  8
0
 62
     3
100
AcDbLine
 10
110.8172250433
 20
205.4000091552
 30
0.0
 11
110.8172250433
 21
205.6000823973998
 31
0.0
  0
LINE
  5
19C
330
2
100
AcDbEntity
  8
0
 62
     3
100
AcDbLine
 10
111.3171693685997
 20
205.2501906724998
 30
0.0
 11
110.8171809914999
 21
205.4001871637999
 31
0.0
  0
LINE
  5
19D
330
2
100
AcDbEntity
  8
0
 62
     3
100
AcDbLine
 10
111.3164468450999
 20
205.2499847412
 30
0.0
 11
111.3164468450999
 21
205.7498626709
 31
0.0
  0
LINE
  5
19E
330
2
100
AcDbEntity
  8
0
 62
     3
100
AcDbLine
 10
110.8170373056998
 20
211.1004974111
 30
0.0
 11
111.3166456857999
 21
211.2503798722999
 31
0.0
  0
LINE
  5
19F
330
2
100
AcDbEntity
  8
0
 62
     3
100
AcDbLine
 10
110.8172403020999
 20
210.8999938963999
 30
0.0
 11
110.8172403020999
 21
211.1000671385999
 31
0.0
  0
LINE
  5
1A0
330
2
100
AcDbEntity
  8
0
 62
     3
100
AcDbLine
 10
111.3171662257
 20
210.7501826
 30
0.0
 11
110.8171778485999
 21
210.9001790913
 31
0.0
  0
LINE
  5
1A1
330
2
100
AcDbEntity
  8
0
 62
     3
100
AcDbLine
 10
111.3164621038998
 20
210.7499694823998
 30
0.0
 11
111.3164621038998
 21
211.2498474120999
 31
0.0
  0
LINE
  5
1A2
330
2
100
AcDbEntity
  8
0
 62
     3
100
AcDbLine
 10
129.2176004094999
 20
176.4998931884
 30
0.0
 11
132.0175424260999
 21
176.4998931884
 31
0.0
  0
LINE
  5
1A3
330
2
100
AcDbEntity
  8
0
 62
     3
100
AcDbLine
 10
128.8176980657999
 20
175.8997955322
 30
0.0
 11
132.0175424260999
 21
175.8997955322
 31
0.0
  0
LINE
  5
1A4
330
2
100
AcDbEntity
  8
0
 62
     3
100
AcDbLine
 10
132.0175424260999
 20
164.5004272461
 30
0.0
 11
129.2176004094999
 21
164.5004272461
 31
0.0
  0
LINE
  5
1A5
330
2
100
AcDbEntity
  8
0
 62
     3
100
AcDbLine
 10
129.2176004094999
 20
172.4998931883999
 30
0.0
 11
132.0175424260999
 21
172.4998931883999
 31
0.0
  0
LINE
  5
1A6
330
2
100
AcDbEntity
  8
0
 62
     3
100
AcDbLine
 10
132.0175424260999
 20
160.5005187987999
 30
0.0
 11
129.2176004094999
 21
160.5005187987999
 31
0.0
  0
LINE
  5
1A7
330
2
100
AcDbEntity
  8
0
 62
     3
100
AcDbLine
 10
132.0175424260999
 20
161.1004943846999
 30
0.0
 11
128.8176980657999
 21
161.1004943846999
 31
0.0
  0
ARC
  5
1A8
330
2
100
AcDbEntity
  8
0
 62
     3
100
AcDbCircle
 10
149.0176339788999
 20
168.4997711180999
 30
0.0
 40
20.200012207
100
AcDbArc
 50
168.5787949053
 51
191.4211331503
  0
LINE
  5
1A9
330
2
100
AcDbEntity
  8
0
 62
     3
100
AcDbLine
 10
123.8172708196999
 20
168.0999450682999
 30
0.0
 11
123.8172708196999
 21
167.6999206542999
 31
0.0
  0
LINE
  5
1AA
330
2
100
AcDbEntity
  8
0
 62
     3
100
AcDbLine
 10
123.8175149602999
 20
170.9497985839
 30
0.0
 11
123.8175149602999
 21
166.0500946045
 31
0.0
  0
LINE
  5
1AB
330
2
100
AcDbEntity
  8
0
 62
     3
100
AcDbLine
 10
128.8176980657999
 20
161.1004943846999
 30
0.0
 11
128.8176980657999
 21
175.8997955322
 31
0.0
  0
LINE
  5
1AC
330
2
100
AcDbEntity
  8
0
 62
     3
100
AcDbLine
 10
117.8177591008999
 20
163.2999572754
 30
0.0
 11
117.8177591008999
 21
173.8999481200999
 31
0.0
  0
LINE
  5
1AD
330
2
100
AcDbEntity
  8
0
 62
     3
100
AcDbLine
 10
118.8177133245999
 20
161.1004791258999
 30
0.0
 11
118.8177133245999
 21
175.8997802733999
 31
0.0
  0
LINE
  5
1AE
330
2
100
AcDbEntity
  8
0
 62
     3
100
AcDbLine
 10
118.8177133245999
 20
161.1004791258999
 30
0.0
 11
128.8177133245999
 21
161.1004791258999
 31
0.0
  0
LINE
  5
1AF
330
2
100
AcDbEntity
  8
0
 62
     3
100
AcDbLine
 10
123.8174656132999
 20
166.0501684161999
 30
0.0
 11
118.8174631022999
 21
165.9999974914
 31
0.0
  0
ARC
  5
1B0
330
2
100
AcDbEntity
  8
0
 62
     3
100
AcDbCircle
 10
118.1177621526999
 20
163.9000091551999
 30
0.0
 40
0.2999997735
100
AcDbArc
 50
179.9999640277999
 51
269.9999460416999
  0
ARC
  5
1B1
330
2
100
AcDbEntity
  8
0
 62
     3
100
AcDbCircle
 10
118.1177621526999
 20
163.3000183104999
 30
0.0
 40
0.2999997735
100
AcDbArc
 50
179.9999640277999
 51
269.9999460416999
  0
LINE
  5
1B2
330
2
100
AcDbEntity
  8
0
 62
     3
100
AcDbLine
 10
118.5177102727999
 20
162.9999542236
 30
0.0
 11
118.5177102727999
 21
162.0999603271
 31
0.0
  0
LINE
  5
1B3
330
2
100
AcDbEntity
  8
0
 62
     3
100
AcDbLine
 10
118.1177621526999
 20
162.9999694823999
 30
0.0
 11
118.8177133245999
 21
162.9999694823999
 31
0.0
  0
LINE
  5
1B4
330
2
100
AcDbEntity
  8
0
 62
     3
100
AcDbLine
 10
118.1177621526999
 20
163.5999603271
 30
0.0
 11
118.8177133245999
 21
163.5999603271
 31
0.0
  0
LINE
  5
1B5
330
2
100
AcDbEntity
  8
0
 62
     3
100
AcDbLine
 10
129.2176004094999
 20
160.50050354
 30
0.0
 11
129.2176004094999
 21
164.5004272461
 31
0.0
  0
LINE
  5
1B6
330
2
100
AcDbEntity
  8
0
 62
     3
100
AcDbLine
 10
129.2158429289999
 20
160.4993124381
 30
0.0
 11
128.8158657990997
 21
161.0992784983
 31
0.0
  0
LINE
  5
1B7
330
2
100
AcDbEntity
  8
0
 62
     3
100
AcDbLine
 10
128.8177133245999
 20
175.8997802733999
 30
0.0
 11
118.8177133245999
 21
175.8997802733999
 31
0.0
  0
LINE
  5
1B8
330
2
100
AcDbEntity
  8
0
 62
     3
100
AcDbLine
 10
118.8173085525999
 20
170.9994746918
 30
0.0
 11
123.8173047257999
 21
170.9496700647999
 31
0.0
  0
ARC
  5
1B9
330
2
100
AcDbEntity
  8
0
 62
     3
100
AcDbCircle
 10
118.1177621526999
 20
172.9499969482
 30
0.0
 40
0.2999997735
100
AcDbArc
 50
89.99998201389999
 51
179.9999640277999
  0
LINE
  5
1BA
330
2
100
AcDbEntity
  8
0
 62
     3
100
AcDbLine
 10
118.1177621526999
 20
173.2499389647999
 30
0.0
 11
118.8177133245999
 21
173.2499389647999
 31
0.0
  0
ARC
  5
1BB
330
2
100
AcDbEntity
  8
0
 62
     3
100
AcDbCircle
 10
118.1177621526999
 20
173.8999938963999
 30
0.0
 40
0.2999997735
100
AcDbArc
 50
89.99998201389999
 51
180.0000186692997
  0
LINE
  5
1BC
330
2
100
AcDbEntity
  8
0
 62
     3
100
AcDbLine
 10
118.5177102727999
 20
174.8999481200999
 30
0.0
 11
118.5177102727999
 21
174.1999359130999
 31
0.0
  0
LINE
  5
1BD
330
2
100
AcDbEntity
  8
0
 62
     3
100
AcDbLine
 10
118.8176980657999
 20
174.1999511718
 30
0.0
 11
118.1177468938999
 21
174.1999511718
 31
0.0
  0
LINE
  5
1BE
330
2
100
AcDbEntity
  8
0
 62
     3
100
AcDbLine
 10
123.8172708196999
 20
169.2997741699
 30
0.0
 11
123.8172708196999
 21
168.8997497557999
 31
0.0
  0
LINE
  5
1BF
330
2
100
AcDbEntity
  8
0
 62
     3
100
AcDbLine
 10
129.2176004094999
 20
172.4998779296999
 30
0.0
 11
129.2176004094999
 21
176.4998931884
 31
0.0
  0
LINE
  5
1C0
330
2
100
AcDbEntity
  8
0
 62
     3
100
AcDbLine
 10
128.8165448803
 20
175.8992723245
 30
0.0
 11
129.2165897225999
 21
176.4993399534
 31
0.0
  0
LINE
  5
1C1
330
2
100
AcDbEntity
  8
0
 62
     3
100
AcDbLine
 10
138.0175119086
 20
162.4999847411999
 30
0.0
 11
138.0175119086
 21
174.4999694823999
 31
0.0
  0
LINE
  5
1C2
330
2
100
AcDbEntity
  8
0
 62
     3
100
AcDbLine
 10
140.2176767034999
 20
177.2000122069999
 30
0.0
 11
140.2176767034999
 21
159.8000030517
 31
0.0
  0
LINE
  5
1C3
330
2
100
AcDbEntity
  8
0
 62
     3
100
AcDbLine
 10
137.0175119086
 20
159.5999603271
 30
0.0
 11
137.0175119086
 21
177.3999176025
 31
0.0
  0
LINE
  5
1C4
330
2
100
AcDbEntity
  8
0
 62
     3
100
AcDbLine
 10
137.0174508733997
 20
177.3999176025
 30
0.0
 11
137.0174508733997
 21
159.5999450682999
 31
0.0
  0
LINE
  5
1C5
330
2
100
AcDbEntity
  8
0
 62
     3
100
AcDbLine
 10
140.8176828069999
 20
159.5505097833
 30
0.0
 11
140.8176828069999
 21
177.4495709776999
 31
0.0
  0
LINE
  5
1C6
330
2
100
AcDbEntity
  8
0
 62
     3
100
AcDbLine
 10
133.2175546331999
 20
171.5000152587999
 30
0.0
 11
133.2175546331999
 21
165.5000305174999
 31
0.0
  0
LINE
  5
1C7
330
2
100
AcDbEntity
  8
0
 62
     3
100
AcDbLine
 10
134.0175424260999
 20
167.9000091552
 30
0.0
 11
134.0175424260999
 21
166.8075561522999
 31
0.0
  0
LINE
  5
1C8
330
2
100
AcDbEntity
  8
0
 62
     3
100
AcDbLine
 10
140.2176767034999
 20
164.5004272461
 30
0.0
 11
138.0175119086
 21
164.5004272461
 31
0.0
  0
LINE
  5
1C9
330
2
100
AcDbEntity
  8
0
 62
     3
100
AcDbLine
 10
140.2176767034999
 20
161.1004943846999
 30
0.0
 11
138.4919076604999
 21
161.1004943846999
 31
0.0
  0
LINE
  5
1CA
330
2
100
AcDbEntity
  8
0
 62
     3
100
AcDbLine
 10
137.9616068314998
 20
159.5499741383999
 30
0.0
 11
138.9086613101
 21
159.8709994394
 31
0.0
  0
LINE
  5
1CB
330
2
100
AcDbEntity
  8
0
 62
     3
100
AcDbLine
 10
138.0175221728
 20
162.4999735047
 30
0.0
 11
138.9086833527999
 21
159.8709994124
 31
0.0
  0
LINE
  5
1CC
330
2
100
AcDbEntity
  8
0
 62
     3
100
AcDbLine
 10
137.0175119086
 20
159.6000213623
 30
0.0
 11
133.2175393743999
 21
159.6000213623
 31
0.0
  0
LINE
  5
1CD
330
2
100
AcDbEntity
  8
0
 62
     3
100
AcDbLine
 10
137.0175271673997
 20
160.0868072508999
 30
0.0
 11
134.0175424260999
 21
160.0868072508999
 31
0.0
  0
LINE
  5
1CE
330
2
100
AcDbEntity
  8
0
 62
     3
100
AcDbLine
 10
137.0175271673997
 20
160.5099334715999
 30
0.0
 11
134.0175424260999
 21
160.5099334715999
 31
0.0
  0
LINE
  5
1CF
330
2
100
AcDbEntity
  8
0
 62
     3
100
AcDbLine
 10
137.0175271673997
 20
161.1099243164
 30
0.0
 11
134.0175424260999
 21
161.1099243164
 31
0.0
  0
LINE
  5
1D0
330
2
100
AcDbEntity
  8
0
 62
     3
100
AcDbLine
 10
137.0175271673997
 20
161.7968139647999
 30
0.0
 11
134.0175424260999
 21
161.7968139647999
 31
0.0
  0
LINE
  5
1D1
330
2
100
AcDbEntity
  8
0
 62
     3
100
AcDbLine
 10
137.0175271673997
 20
162.6655120849
 30
0.0
 11
134.0175424260999
 21
162.6655120849
 31
0.0
  0
LINE
  5
1D2
330
2
100
AcDbEntity
  8
0
 62
     3
100
AcDbLine
 10
137.0175271673997
 20
163.5405273436999
 30
0.0
 11
134.0175424260999
 21
163.5405273436999
 31
0.0
  0
LINE
  5
1D3
330
2
100
AcDbEntity
  8
0
 62
     3
100
AcDbLine
 10
137.0175271673997
 20
164.5797424315999
 30
0.0
 11
134.0175424260999
 21
164.5797424315999
 31
0.0
  0
LINE
  5
1D4
330
2
100
AcDbEntity
  8
0
 62
     3
100
AcDbLine
 10
137.0175271673997
 20
165.6221923828
 30
0.0
 11
134.0175424260999
 21
165.6221923828
 31
0.0
  0
LINE
  5
1D5
330
2
100
AcDbEntity
  8
0
 62
     3
100
AcDbLine
 10
137.0175271673997
 20
166.8075561522999
 30
0.0
 11
134.0175424260999
 21
166.8075561522999
 31
0.0
  0
LINE
  5
1D6
330
2
100
AcDbEntity
  8
0
 62
     3
100
AcDbLine
 10
132.0175576848999
 20
165.5000305174999
 30
0.0
 11
132.0175576848999
 21
160.1209106444999
 31
0.0
  0
LINE
  5
1D7
330
2
100
AcDbEntity
  8
0
 62
     3
100
AcDbLine
 10
132.0175576848999
 20
160.1209106444999
 30
0.0
 11
133.2175546331999
 21
160.1209106444999
 31
0.0
  0
LINE
  5
1D8
330
2
100
AcDbEntity
  8
0
 62
     3
100
AcDbLine
 10
133.2175207022999
 20
159.6000261318
 30
0.0
 11
133.2175359610999
 21
160.1209154141
 31
0.0
  0
LINE
  5
1D9
330
2
100
AcDbEntity
  8
0
 62
     3
100
AcDbLine
 10
134.0174661321998
 20
160.5098419189
 30
0.0
 11
134.0174661321998
 21
160.0867309569999
 31
0.0
  0
LINE
  5
1DA
330
2
100
AcDbEntity
  8
0
 62
     3
100
AcDbLine
 10
134.0175424260999
 20
161.1099243164
 30
0.0
 11
134.0175424260999
 21
161.7968139647999
 31
0.0
  0
LINE
  5
1DB
330
2
100
AcDbEntity
  8
0
 62
     3
100
AcDbLine
 10
133.2175546331999
 20
165.5000305174999
 30
0.0
 11
132.0175576848999
 21
165.5000305174999
 31
0.0
  0
LINE
  5
1DC
330
2
100
AcDbEntity
  8
0
 62
     3
100
AcDbLine
 10
134.0175424260999
 20
162.6655120849
 30
0.0
 11
134.0175424260999
 21
163.5405273436999
 31
0.0
  0
LINE
  5
1DD
330
2
100
AcDbEntity
  8
0
 62
     3
100
AcDbLine
 10
134.0175424260999
 20
165.6221923828
 30
0.0
 11
134.0175424260999
 21
164.5797424315999
 31
0.0
  0
LINE
  5
1DE
330
2
100
AcDbEntity
  8
0
 62
     3
100
AcDbLine
 10
137.0175301349999
 20
162.3350692985
 30
0.0
 11
137.9616156747998
 21
159.5499654577
 31
0.0
  0
LINE
  5
1DF
330
2
100
AcDbEntity
  8
0
 62
     3
100
AcDbLine
 10
137.0175119086
 20
159.5500030516999
 30
0.0
 11
137.9616037053999
 21
159.5500030516999
 31
0.0
  0
LINE
  5
1E0
330
2
100
AcDbEntity
  8
0
 62
     3
100
AcDbLine
 10
140.2176767034999
 20
159.8000030517
 30
0.0
 11
140.8176828069999
 21
159.8000030517
 31
0.0
  0
LINE
  5
1E1
330
2
100
AcDbEntity
  8
0
 62
     3
100
AcDbLine
 10
139.9197183294999
 20
160.5005187987999
 30
0.0
 11
138.6952768010999
 21
160.5005187987999
 31
0.0
  0
LINE
  5
1E2
330
2
100
AcDbEntity
  8
0
 62
     3
100
AcDbLine
 10
140.2194183032999
 20
161.0998438969
 30
0.0
 11
139.9194318787999
 21
160.4998863207999
 31
0.0
  0
LINE
  5
1E3
330
2
100
AcDbEntity
  8
0
 62
     3
100
AcDbLine
 10
138.4920144719999
 20
175.8997955322
 30
0.0
 11
140.2176767034999
 21
175.8997955322
 31
0.0
  0
LINE
  5
1E4
330
2
100
AcDbEntity
  8
0
 62
     3
100
AcDbLine
 10
138.0175161133997
 20
174.4999971496
 30
0.0
 11
138.9086716325999
 21
177.1289410160999
 31
0.0
  0
LINE
  5
1E5
330
2
100
AcDbEntity
  8
0
 62
     3
100
AcDbLine
 10
137.9616426226999
 20
177.4499783014999
 30
0.0
 11
138.9086924522
 21
177.1289392916999
 31
0.0
  0
LINE
  5
1E6
330
2
100
AcDbEntity
  8
0
 62
     3
100
AcDbLine
 10
138.0175119086
 20
172.4998931883999
 30
0.0
 11
140.2176767034999
 21
172.4998931883999
 31
0.0
  0
LINE
  5
1E7
330
2
100
AcDbEntity
  8
0
 62
     3
100
AcDbLine
 10
133.2175546331999
 20
177.4000091551999
 30
0.0
 11
137.0175271673997
 21
177.4000091551999
 31
0.0
  0
LINE
  5
1E8
330
2
100
AcDbEntity
  8
0
 62
     3
100
AcDbLine
 10
137.0175271673997
 20
167.9000091552
 30
0.0
 11
134.0175424260999
 21
167.9000091552
 31
0.0
  0
LINE
  5
1E9
330
2
100
AcDbEntity
  8
0
 62
     3
100
AcDbLine
 10
134.0175424260999
 20
176.9132232666
 30
0.0
 11
137.0175271673997
 21
176.9132232666
 31
0.0
  0
LINE
  5
1EA
330
2
100
AcDbEntity
  8
0
 62
     3
100
AcDbLine
 10
134.0175424260999
 20
176.4900970459
 30
0.0
 11
137.0175271673997
 21
176.4900970459
 31
0.0
  0
LINE
  5
1EB
330
2
100
AcDbEntity
  8
0
 62
     3
100
AcDbLine
 10
134.0175424260999
 20
175.8901062010999
 30
0.0
 11
137.0175271673997
 21
175.8901062010999
 31
0.0
  0
LINE
  5
1EC
330
2
100
AcDbEntity
  8
0
 62
     3
100
AcDbLine
 10
134.0175424260999
 20
175.2032165526999
 30
0.0
 11
137.0175271673997
 21
175.2032165526999
 31
0.0
  0
LINE
  5
1ED
330
2
100
AcDbEntity
  8
0
 62
     3
100
AcDbLine
 10
134.0175424260999
 20
174.3345184325999
 30
0.0
 11
137.0175271673997
 21
174.3345184325999
 31
0.0
  0
LINE
  5
1EE
330
2
100
AcDbEntity
  8
0
 62
     3
100
AcDbLine
 10
134.0175424260999
 20
173.4595031738
 30
0.0
 11
137.0175271673997
 21
173.4595031738
 31
0.0
  0
LINE
  5
1EF
330
2
100
AcDbEntity
  8
0
 62
     3
100
AcDbLine
 10
134.0175424260999
 20
172.4202880858999
 30
0.0
 11
137.0175271673997
 21
172.4202880858999
 31
0.0
  0
LINE
  5
1F0
330
2
100
AcDbEntity
  8
0
 62
     3
100
AcDbLine
 10
134.0175424260999
 20
171.3778381346999
 30
0.0
 11
137.0175271673997
 21
171.3778381346999
 31
0.0
  0
LINE
  5
1F1
330
2
100
AcDbEntity
  8
0
 62
     3
100
AcDbLine
 10
134.0175424260999
 20
170.1924743651999
 30
0.0
 11
137.0175271673997
 21
170.1924743651999
 31
0.0
  0
LINE
  5
1F2
330
2
100
AcDbEntity
  8
0
 62
     3
100
AcDbLine
 10
134.0175424260999
 20
169.1000213623
 30
0.0
 11
137.0175271673997
 21
169.1000213623
 31
0.0
  0
LINE
  5
1F3
330
2
100
AcDbEntity
  8
0
 62
     3
100
AcDbLine
 10
134.0175424260999
 20
173.4595031738
 30
0.0
 11
134.0175424260999
 21
174.3345184325999
 31
0.0
  0
LINE
  5
1F4
330
2
100
AcDbEntity
  8
0
 62
     3
100
AcDbLine
 10
132.0175576848999
 20
176.8791809082
 30
0.0
 11
132.0175576848999
 21
171.5000152587999
 31
0.0
  0
LINE
  5
1F5
330
2
100
AcDbEntity
  8
0
 62
     3
100
AcDbLine
 10
132.0175576848999
 20
171.5000152587999
 30
0.0
 11
133.2175546331999
 21
171.5000152587999
 31
0.0
  0
LINE
  5
1F6
330
2
100
AcDbEntity
  8
0
 62
     3
100
AcDbLine
 10
134.0175424260999
 20
172.4202880858999
 30
0.0
 11
134.0175424260999
 21
171.3778381346999
 31
0.0
  0
LINE
  5
1F7
330
2
100
AcDbEntity
  8
0
 62
     3
100
AcDbLine
 10
134.0175424260999
 20
170.1924743651999
 30
0.0
 11
134.0175424260999
 21
169.1000213623
 31
0.0
  0
LINE
  5
1F8
330
2
100
AcDbEntity
  8
0
 62
     3
100
AcDbLine
 10
133.2175546331999
 20
176.8791809082
 30
0.0
 11
132.0175576848999
 21
176.8791809082
 31
0.0
  0
LINE
  5
1F9
330
2
100
AcDbEntity
  8
0
 62
     3
100
AcDbLine
 10
133.2175546331999
 20
177.4000091551999
 30
0.0
 11
133.2175546331999
 21
176.8791809082
 31
0.0
  0
LINE
  5
1FA
330
2
100
AcDbEntity
  8
0
 62
     3
100
AcDbLine
 10
134.0176034612999
 20
176.9132690429
 30
0.0
 11
134.0176034612999
 21
176.490158081
 31
0.0
  0
LINE
  5
1FB
330
2
100
AcDbEntity
  8
0
 62
     3
100
AcDbLine
 10
134.0175424260999
 20
175.2032165526999
 30
0.0
 11
134.0175424260999
 21
175.8901062010999
 31
0.0
  0
LINE
  5
1FC
330
2
100
AcDbEntity
  8
0
 62
     3
100
AcDbLine
 10
137.0175191633999
 20
174.6648402216
 30
0.0
 11
137.9616237811999
 21
177.4499860132999
 31
0.0
  0
LINE
  5
1FD
330
2
100
AcDbEntity
  8
0
 62
     3
100
AcDbLine
 10
137.0175119086
 20
177.4500122069999
 30
0.0
 11
137.9616189642
 21
177.4500122069999
 31
0.0
  0
LINE
  5
1FE
330
2
100
AcDbEntity
  8
0
 62
     3
100
AcDbLine
 10
140.2176767034999
 20
177.2000122069999
 30
0.0
 11
140.8176828069999
 21
177.2000122069999
 31
0.0
  0
LINE
  5
1FF
330
2
100
AcDbEntity
  8
0
 62
     3
100
AcDbLine
 10
138.6954446477999
 20
176.4998931884
 30
0.0
 11
139.9184060735999
 21
176.4998931884
 31
0.0
  0
LINE
  5
200
330
2
100
AcDbEntity
  8
0
 62
     3
100
AcDbLine
 10
140.2186732528999
 20
175.899186626
 30
0.0
 11
139.9186811418999
 21
176.4992778177
 31
0.0
  0
LINE
  5
201
330
2
100
AcDbEntity
  8
0
 62
     3
100
AcDbLine
 10
129.2696023626999
 20
207.8002624510999
 30
0.0
 11
133.2166696233999
 21
207.8002624510999
 31
0.0
  0
LINE
  5
202
330
2
100
AcDbEntity
  8
0
 62
     3
100
AcDbLine
 10
128.8172403021
 20
209.2002716064
 30
0.0
 11
133.2166696233999
 21
209.2002716064
 31
0.0
  0
LINE
  5
203
330
2
100
AcDbEntity
  8
0
 62
     3
100
AcDbLine
 10
132.0166726751999
 20
215.9001770018999
 30
0.0
 11
123.8171182317999
 21
215.9001770018999
 31
0.0
  0
LINE
  5
204
330
2
100
AcDbEntity
  8
0
 62
     3
100
AcDbLine
 10
123.8171182317999
 20
201.1002502440998
 30
0.0
 11
132.0166726751999
 21
201.1002502440998
 31
0.0
  0
LINE
  5
205
330
2
100
AcDbEntity
  8
0
 62
     3
100
AcDbLine
 10
130.8140154738999
 20
207.8001785338
 30
0.0
 11
131.2667129413
 21
201.1002448083999
 31
0.0
  0
LINE
  5
206
330
2
100
AcDbEntity
  8
0
 62
     3
100
AcDbLine
 10
129.1730376578999
 20
209.2002311446
 30
0.0
 11
128.8172186499999
 21
214.4663612709999
 31
0.0
  0
LINE
  5
207
330
2
100
AcDbEntity
  8
0
 62
     3
100
AcDbLine
 10
129.6741776583999
 20
209.2002319110999
 30
0.0
 11
129.2214452166999
 21
215.9006832550999
 31
0.0
  0
LINE
  5
208
330
2
100
AcDbEntity
  8
0
 62
     3
100
AcDbLine
 10
129.7214975184999
 20
215.9002587762998
 30
0.0
 11
130.1742011578999
 21
209.2002337063998
 31
0.0
  0
LINE
  5
209
330
2
100
AcDbEntity
  8
0
 62
     3
100
AcDbLine
 10
130.2167237878999
 20
215.9006399397
 30
0.0
 11
130.6694531435999
 21
209.2002342678999
 31
0.0
  0
LINE
  5
20A
330
2
100
AcDbEntity
  8
0
 62
     3
100
AcDbLine
 10
128.8172403021
 20
201.1003570555998
 30
0.0
 11
128.8172403021
 21
215.9002990722
 31
0.0
  0
LINE
  5
20B
330
2
100
AcDbEntity
  8
0
 62
     3
100
AcDbLine
 10
118.8172403020999
 20
201.1500396728
 30
0.0
 11
118.8172403020999
 21
215.8499908447
 31
0.0
  0
LINE
  5
20C
330
2
100
AcDbEntity
  8
0
 62
     3
100
AcDbLine
 10
118.8170724553999
 20
201.1499938963999
 30
0.0
 11
123.8170724553999
 21
201.1499938963999
 31
0.0
  0
LINE
  5
20D
330
2
100
AcDbEntity
  8
0
 62
     3
100
AcDbLine
 10
118.8170724553999
 20
201.4997253418
 30
0.0
 11
123.8170724553999
 21
201.4997253418
 31
0.0
  0
ARC
  5
20E
330
2
100
AcDbEntity
  8
0
 62
     3
100
AcDbCircle
 10
118.1142831487999
 20
204.6005554198998
 30
0.0
 40
0.2999997735
100
AcDbArc
 50
180.0000359722
 51
270.0000179861
  0
ARC
  5
20F
330
2
100
AcDbEntity
  8
0
 62
     3
100
AcDbCircle
 10
118.1142831487999
 20
206.9004821776998
 30
0.0
 40
0.2999997735
100
AcDbArc
 50
89.99998201389999
 51
179.9999093863
  0
ARC
  5
210
330
2
100
AcDbEntity
  8
0
 62
     3
100
AcDbCircle
 10
118.1142678899999
 20
205.0000915526999
 30
0.0
 40
0.2999999522999999
100
AcDbArc
 50
180.0000359722
 51
269.9985426651998
  0
ARC
  5
211
330
2
100
AcDbEntity
  8
0
 62
     3
100
AcDbCircle
 10
118.1142678899999
 20
206.5000915526999
 30
0.0
 40
0.2999999522999999
100
AcDbArc
 50
90.00156661780001
 51
180.0000186692997
  0
LINE
  5
212
330
2
100
AcDbEntity
  8
0
 62
     3
100
AcDbLine
 10
117.8142648382999
 20
206.8999938963999
 30
0.0
 11
117.8142648382999
 21
204.6000823973999
 31
0.0
  0
LINE
  5
213
330
2
100
AcDbEntity
  8
0
 62
     3
100
AcDbLine
 10
118.8172403020999
 20
207.2001647948998
 30
0.0
 11
118.1142831487999
 21
207.2001647948998
 31
0.0
  0
LINE
  5
214
330
2
100
AcDbEntity
  8
0
 62
     3
100
AcDbLine
 10
118.8172403020999
 20
204.3001556396
 30
0.0
 11
118.1142831487999
 21
204.3001556396
 31
0.0
  0
LINE
  5
215
330
2
100
AcDbEntity
  8
0
 62
     3
100
AcDbLine
 10
118.8172403020999
 20
204.6998138426999
 30
0.0
 11
118.1142678899999
 21
204.6998138426999
 31
0.0
  0
LINE
  5
216
330
2
100
AcDbEntity
  8
0
 62
     3
100
AcDbLine
 10
118.8172403020999
 20
206.7997741698998
 30
0.0
 11
118.1142678899999
 21
206.7997741698998
 31
0.0
  0
ARC
  5
217
330
2
100
AcDbEntity
  8
0
 62
     3
100
AcDbCircle
 10
118.1142831487999
 20
210.1005554198998
 30
0.0
 40
0.2999997735
100
AcDbArc
 50
180.0000359722
 51
270.0000179861
  0
ARC
  5
218
330
2
100
AcDbEntity
  8
0
 62
     3
100
AcDbCircle
 10
118.1142831487999
 20
212.4004821777
 30
0.0
 40
0.2999997735
100
AcDbArc
 50
89.99998201389999
 51
179.9999093863
  0
ARC
  5
219
330
2
100
AcDbEntity
  8
0
 62
     3
100
AcDbCircle
 10
118.1142678899999
 20
210.5000915526999
 30
0.0
 40
0.2999999522999999
100
AcDbArc
 50
180.0000359722
 51
269.9985426651998
  0
ARC
  5
21A
330
2
100
AcDbEntity
  8
0
 62
     3
100
AcDbCircle
 10
118.1142678899999
 20
212.0000915526999
 30
0.0
 40
0.2999999522999999
100
AcDbArc
 50
90.00156661780001
 51
180.0000186692997
  0
LINE
  5
21B
330
2
100
AcDbEntity
  8
0
 62
     3
100
AcDbLine
 10
117.8142800969999
 20
212.3999938963998
 30
0.0
 11
117.8142800969999
 21
210.1000671385999
 31
0.0
  0
LINE
  5
21C
330
2
100
AcDbEntity
  8
0
 62
     3
100
AcDbLine
 10
118.8172403020999
 20
212.7001647949
 30
0.0
 11
118.1142831487999
 21
212.7001647949
 31
0.0
  0
LINE
  5
21D
330
2
100
AcDbEntity
  8
0
 62
     3
100
AcDbLine
 10
118.8172403020999
 20
209.8001556395999
 30
0.0
 11
118.1142831487999
 21
209.8001556395999
 31
0.0
  0
LINE
  5
21E
330
2
100
AcDbEntity
  8
0
 62
     3
100
AcDbLine
 10
118.8172403020999
 20
210.1998138426999
 30
0.0
 11
118.1142678899999
 21
210.1998138426999
 31
0.0
  0
LINE
  5
21F
330
2
100
AcDbEntity
  8
0
 62
     3
100
AcDbLine
 10
118.8172403020999
 20
212.2997741698998
 30
0.0
 11
118.1142678899999
 21
212.2997741698998
 31
0.0
  0
LINE
  5
220
330
2
100
AcDbEntity
  8
0
 62
     3
100
AcDbLine
 10
121.8170724553999
 20
210.1994476317999
 30
0.0
 11
121.8170724553999
 21
206.7995605467999
 31
0.0
  0
LINE
  5
221
330
2
100
AcDbEntity
  8
0
 62
     3
100
AcDbLine
 10
120.3170724553999
 20
210.1994476317999
 30
0.0
 11
120.3170724553999
 21
206.7995605467999
 31
0.0
  0
LINE
  5
222
330
2
100
AcDbEntity
  8
0
 62
     3
100
AcDbLine
 10
120.3172403020999
 20
206.8001861572
 30
0.0
 11
121.8172403020999
 21
206.8001861572
 31
0.0
  0
LINE
  5
223
330
2
100
AcDbEntity
  8
0
 62
     3
100
AcDbLine
 10
120.3172403020999
 20
205.0000152588
 30
0.0
 11
121.8172403020999
 21
205.0000152588
 31
0.0
  0
LINE
  5
224
330
2
100
AcDbEntity
  8
0
 62
     3
100
AcDbLine
 10
120.3172403020999
 20
206.5000152587999
 30
0.0
 11
121.8172403020999
 21
206.5000152587999
 31
0.0
  0
LINE
  5
225
330
2
100
AcDbEntity
  8
0
 62
     3
100
AcDbLine
 10
120.3172403020999
 20
205.0000152588
 30
0.0
 11
120.3172403020999
 21
206.5000152587999
 31
0.0
  0
LINE
  5
226
330
2
100
AcDbEntity
  8
0
 62
     3
100
AcDbLine
 10
121.8172403020999
 20
205.0000152588
 30
0.0
 11
121.8172403020999
 21
206.5000152587999
 31
0.0
  0
LINE
  5
227
330
2
100
AcDbEntity
  8
0
 62
     3
100
AcDbLine
 10
120.3172403020999
 20
210.2002105713
 30
0.0
 11
121.8172403020999
 21
210.2002105713
 31
0.0
  0
LINE
  5
228
330
2
100
AcDbEntity
  8
0
 62
     3
100
AcDbLine
 10
120.3172403020999
 20
212.0000152588
 30
0.0
 11
121.8172403020999
 21
212.0000152588
 31
0.0
  0
LINE
  5
229
330
2
100
AcDbEntity
  8
0
 62
     3
100
AcDbLine
 10
120.3171182317999
 20
210.5000152587999
 30
0.0
 11
121.8172403020999
 21
210.5000152587999
 31
0.0
  0
LINE
  5
22A
330
2
100
AcDbEntity
  8
0
 62
     3
100
AcDbLine
 10
120.3172403020999
 20
210.5000152587999
 30
0.0
 11
120.3172403020999
 21
212.0000152588
 31
0.0
  0
LINE
  5
22B
330
2
100
AcDbEntity
  8
0
 62
     3
100
AcDbLine
 10
121.8172403020999
 20
210.5000152587999
 30
0.0
 11
121.8172403020999
 21
212.0000152588
 31
0.0
  0
LINE
  5
22C
330
2
100
AcDbEntity
  8
0
 62
     3
100
AcDbLine
 10
129.2232023398999
 20
201.0639946589998
 30
0.0
 11
128.8657508608999
 21
206.3542853960998
 31
0.0
  0
LINE
  5
22D
330
2
100
AcDbEntity
  8
0
 62
     3
100
AcDbLine
 10
129.7202826590997
 20
201.1009915793999
 30
0.0
 11
129.4024291446999
 21
205.8052314613
 31
0.0
  0
LINE
  5
22E
330
2
100
AcDbEntity
  8
0
 62
     3
100
AcDbLine
 10
130.3187634881998
 20
207.8001779722999
 30
0.0
 11
130.7714558123999
 21
201.1003203672999
 31
0.0
  0
LINE
  5
22F
330
2
100
AcDbEntity
  8
0
 62
     3
100
AcDbLine
 10
130.2691116735999
 20
201.1346640904
 30
0.0
 11
129.8187389599999
 21
207.8001914010999
 31
0.0
  0
LINE
  5
230
330
2
100
AcDbEntity
  8
0
 62
     3
100
AcDbLine
 10
123.8170724553999
 20
201.4997253418
 30
0.0
 11
123.8170724553999
 21
201.0997009276999
 31
0.0
  0
LINE
  5
231
330
2
100
AcDbEntity
  8
0
 62
     3
100
AcDbLine
 10
129.4042700539
 20
205.8033295932998
 30
0.0
 11
128.8659537593
 21
206.3540655702
 31
0.0
  0
LINE
  5
232
330
2
100
AcDbEntity
  8
0
 62
     3
100
AcDbLine
 10
129.2692140108
 20
207.7987836928
 30
0.0
 11
128.8656863692999
 21
206.3539544069
 31
0.0
  0
LINE
  5
233
330
2
100
AcDbEntity
  8
0
 62
     3
100
AcDbLine
 10
129.8635095971999
 20
206.4220027938
 30
0.0
 11
129.4041392929998
 21
205.8037107341998
 31
0.0
  0
LINE
  5
234
330
2
100
AcDbEntity
  8
0
 62
     3
100
AcDbLine
 10
129.8641228207999
 20
206.4220533225999
 30
0.0
 11
129.2699336834999
 21
207.7993475352
 31
0.0
  0
LINE
  5
235
330
2
100
AcDbEntity
  8
0
 62
     3
100
AcDbLine
 10
118.8170724553999
 20
215.8495941162
 30
0.0
 11
123.8170724553999
 21
215.8495941162
 31
0.0
  0
LINE
  5
236
330
2
100
AcDbEntity
  8
0
 62
     3
100
AcDbLine
 10
118.8170724553999
 20
215.4992523193
 30
0.0
 11
123.8170724553999
 21
215.4992523193
 31
0.0
  0
LINE
  5
237
330
2
100
AcDbEntity
  8
0
 62
     3
100
AcDbLine
 10
123.8167871444999
 20
215.899683346
 30
0.0
 11
123.8167795150999
 21
215.4997810021999
 31
0.0
  0
LINE
  5
238
330
2
100
AcDbEntity
  8
0
 62
     3
100
AcDbLine
 10
137.0165506048999
 20
217.3999328612999
 30
0.0
 11
137.0165506048999
 21
199.5999450682999
 31
0.0
  0
LINE
  5
239
330
2
100
AcDbEntity
  8
0
 62
     3
100
AcDbLine
 10
138.0166421575999
 20
202.5002441405999
 30
0.0
 11
138.0166421575999
 21
214.5002288818
 31
0.0
  0
LINE
  5
23A
330
2
100
AcDbEntity
  8
0
 62
     3
100
AcDbLine
 10
140.217203681
 20
199.8002624510999
 30
0.0
 11
140.217203681
 21
217.2002563475999
 31
0.0
  0
LINE
  5
23B
330
2
100
AcDbEntity
  8
0
 62
     3
100
AcDbLine
 10
137.0166421575997
 20
199.6002349853
 30
0.0
 11
137.0166421575997
 21
217.3997802733999
 31
0.0
  0
LINE
  5
23C
330
2
100
AcDbEntity
  8
0
 62
     3
100
AcDbLine
 10
140.8172097844999
 20
196.5499427941999
 30
0.0
 11
140.8172097844999
 21
220.4499172054
 31
0.0
  0
LINE
  5
23D
330
2
100
AcDbEntity
  8
0
 62
     3
100
AcDbLine
 10
134.0166726751999
 20
213.4595184325998
 30
0.0
 11
134.0166726751999
 21
214.3345336913998
 31
0.0
  0
LINE
  5
23E
330
2
100
AcDbEntity
  8
0
 62
     3
100
AcDbLine
 10
132.016687934
 20
216.8791961669999
 30
0.0
 11
132.016687934
 21
211.5000305175
 31
0.0
  0
LINE
  5
23F
330
2
100
AcDbEntity
  8
0
 62
     3
100
AcDbLine
 10
138.0166574163999
 20
207.8002624510999
 30
0.0
 11
140.217203681
 21
207.8002624510999
 31
0.0
  0
LINE
  5
240
330
2
100
AcDbEntity
  8
0
 62
     3
100
AcDbLine
 10
138.0166574163999
 20
209.2002716064
 30
0.0
 11
140.217203681
 21
209.2002716064
 31
0.0
  0
LINE
  5
241
330
2
100
AcDbEntity
  8
0
 62
     3
100
AcDbLine
 10
138.4912210149997
 20
201.1002502440998
 30
0.0
 11
140.217203681
 21
201.1002502440998
 31
0.0
  0
LINE
  5
242
330
2
100
AcDbEntity
  8
0
 62
     3
100
AcDbLine
 10
137.9607522288999
 20
199.5502142138
 30
0.0
 11
138.9078211584999
 21
199.8712444132999
 31
0.0
  0
LINE
  5
243
330
2
100
AcDbEntity
  8
0
 62
     3
100
AcDbLine
 10
138.0166775607999
 20
202.5002299106998
 30
0.0
 11
138.9078387408
 21
199.8712558184
 31
0.0
  0
LINE
  5
244
330
2
100
AcDbEntity
  8
0
 62
     3
100
AcDbLine
 10
137.0166855229999
 20
202.3353257045
 30
0.0
 11
137.9607710627999
 21
199.5502218638
 31
0.0
  0
LINE
  5
245
330
2
100
AcDbEntity
  8
0
 62
     3
100
AcDbLine
 10
132.016687934
 20
205.5000457763
 30
0.0
 11
132.016687934
 21
200.1209259032999
 31
0.0
  0
LINE
  5
246
330
2
100
AcDbEntity
  8
0
 62
     3
100
AcDbLine
 10
137.0166574163999
 20
201.7968292236
 30
0.0
 11
134.0166726751999
 21
201.7968292236
 31
0.0
  0
LINE
  5
247
330
2
100
AcDbEntity
  8
0
 62
     3
100
AcDbLine
 10
137.0166574163999
 20
201.1099395752
 30
0.0
 11
134.0166726751999
 21
201.1099395752
 31
0.0
  0
LINE
  5
248
330
2
100
AcDbEntity
  8
0
 62
     3
100
AcDbLine
 10
137.0166574163999
 20
200.5099487304
 30
0.0
 11
134.0166726751999
 21
200.5099487304
 31
0.0
  0
LINE
  5
249
330
2
100
AcDbEntity
  8
0
 62
     3
100
AcDbLine
 10
137.0166574163999
 20
200.0868225097
 30
0.0
 11
134.0166726751999
 21
200.0868225097
 31
0.0
  0
LINE
  5
24A
330
2
100
AcDbEntity
  8
0
 62
     3
100
AcDbLine
 10
137.0166421575997
 20
199.6000366210999
 30
0.0
 11
133.2166696233999
 21
199.6000366210999
 31
0.0
  0
LINE
  5
24B
330
2
100
AcDbEntity
  8
0
 62
     3
100
AcDbLine
 10
132.016687934
 20
200.1209259032999
 30
0.0
 11
133.2166848821999
 21
200.1209259032999
 31
0.0
  0
LINE
  5
24C
330
2
100
AcDbEntity
  8
0
 62
     3
100
AcDbLine
 10
134.0166726751999
 20
201.1099395752
 30
0.0
 11
134.0166726751999
 21
201.7968292236
 31
0.0
  0
LINE
  5
24D
330
2
100
AcDbEntity
  8
0
 62
     3
100
AcDbLine
 10
134.0165506048997
 20
200.5098419189
 30
0.0
 11
134.0165506048997
 21
200.0867309569999
 31
0.0
  0
LINE
  5
24E
330
2
100
AcDbEntity
  8
0
 62
     3
100
AcDbLine
 10
133.2166416565997
 20
199.6000261822999
 30
0.0
 11
133.2166569154999
 21
200.1209154645999
 31
0.0
  0
LINE
  5
24F
330
2
100
AcDbEntity
  8
0
 62
     3
100
AcDbLine
 10
137.0166574163999
 20
199.5502624510999
 30
0.0
 11
137.9607492132999
 21
199.5502624510999
 31
0.0
  0
LINE
  5
250
330
2
100
AcDbEntity
  8
0
 62
     3
100
AcDbLine
 10
134.0166726751999
 20
209.1000366210999
 30
0.0
 11
137.0166574163999
 21
209.1000366210999
 31
0.0
  0
LINE
  5
251
330
2
100
AcDbEntity
  8
0
 62
     3
100
AcDbLine
 10
134.0166726751999
 20
210.1924896239998
 30
0.0
 11
137.0166574163999
 21
210.1924896239998
 31
0.0
  0
LINE
  5
252
330
2
100
AcDbEntity
  8
0
 62
     3
100
AcDbLine
 10
134.0166726751999
 20
211.3778533935
 30
0.0
 11
137.0166574163999
 21
211.3778533935
 31
0.0
  0
LINE
  5
253
330
2
100
AcDbEntity
  8
0
 62
     3
100
AcDbLine
 10
134.0166726751999
 20
212.4203033446999
 30
0.0
 11
137.0166574163999
 21
212.4203033446999
 31
0.0
  0
LINE
  5
254
330
2
100
AcDbEntity
  8
0
 62
     3
100
AcDbLine
 10
134.0166726751999
 20
213.4595184325998
 30
0.0
 11
137.0166574163999
 21
213.4595184325998
 31
0.0
  0
LINE
  5
255
330
2
100
AcDbEntity
  8
0
 62
     3
100
AcDbLine
 10
137.0166574163999
 20
207.9000244139999
 30
0.0
 11
134.0166726751999
 21
207.9000244139999
 31
0.0
  0
LINE
  5
256
330
2
100
AcDbEntity
  8
0
 62
     3
100
AcDbLine
 10
137.0166574163999
 20
206.8075714110999
 30
0.0
 11
134.0166726751999
 21
206.8075714110999
 31
0.0
  0
LINE
  5
257
330
2
100
AcDbEntity
  8
0
 62
     3
100
AcDbLine
 10
137.0166574163999
 20
205.6222076416
 30
0.0
 11
134.0166726751999
 21
205.6222076416
 31
0.0
  0
LINE
  5
258
330
2
100
AcDbEntity
  8
0
 62
     3
100
AcDbLine
 10
137.0166574163999
 20
204.5797576903999
 30
0.0
 11
134.0166726751999
 21
204.5797576903999
 31
0.0
  0
LINE
  5
259
330
2
100
AcDbEntity
  8
0
 62
     3
100
AcDbLine
 10
137.0166574163999
 20
203.5405426024999
 30
0.0
 11
134.0166726751999
 21
203.5405426024999
 31
0.0
  0
LINE
  5
25A
330
2
100
AcDbEntity
  8
0
 62
     3
100
AcDbLine
 10
137.0166574163999
 20
202.6655273437
 30
0.0
 11
134.0166726751999
 21
202.6655273437
 31
0.0
  0
LINE
  5
25B
330
2
100
AcDbEntity
  8
0
 62
     3
100
AcDbLine
 10
133.2166848821999
 20
211.5000305175
 30
0.0
 11
133.2166848821999
 21
205.5000457763
 31
0.0
  0
LINE
  5
25C
330
2
100
AcDbEntity
  8
0
 62
     3
100
AcDbLine
 10
133.2166848821999
 20
205.5000457763
 30
0.0
 11
132.016687934
 21
205.5000457763
 31
0.0
  0
LINE
  5
25D
330
2
100
AcDbEntity
  8
0
 62
     3
100
AcDbLine
 10
134.0166726751999
 20
205.6222076416
 30
0.0
 11
134.0166726751999
 21
204.5797576903999
 31
0.0
  0
LINE
  5
25E
330
2
100
AcDbEntity
  8
0
 62
     3
100
AcDbLine
 10
134.0166726751999
 20
202.6655273437
 30
0.0
 11
134.0166726751999
 21
203.5405426024999
 31
0.0
  0
LINE
  5
25F
330
2
100
AcDbEntity
  8
0
 62
     3
100
AcDbLine
 10
134.0166726751999
 20
207.9000244139999
 30
0.0
 11
134.0166726751999
 21
206.8075714110999
 31
0.0
  0
LINE
  5
260
330
2
100
AcDbEntity
  8
0
 62
     3
100
AcDbLine
 10
132.016687934
 20
211.5000305175
 30
0.0
 11
133.2166848821999
 21
211.5000305175
 31
0.0
  0
LINE
  5
261
330
2
100
AcDbEntity
  8
0
 62
     3
100
AcDbLine
 10
134.0166726751999
 20
210.1924896239998
 30
0.0
 11
134.0166726751999
 21
209.1000366210999
 31
0.0
  0
LINE
  5
262
330
2
100
AcDbEntity
  8
0
 62
     3
100
AcDbLine
 10
134.0166726751999
 20
212.4203033446999
 30
0.0
 11
134.0166726751999
 21
211.3778533935
 31
0.0
  0
LINE
  5
263
330
2
100
AcDbEntity
  8
0
 62
     3
100
AcDbLine
 10
140.217203681
 20
199.8002624510999
 30
0.0
 11
140.8172097844999
 21
199.8002624510999
 31
0.0
  0
LINE
  5
264
330
2
100
AcDbEntity
  8
0
 62
     3
100
AcDbLine
 10
140.217203681
 20
215.9001770018999
 30
0.0
 11
138.4912210149997
 21
215.9001770018999
 31
0.0
  0
LINE
  5
265
330
2
100
AcDbEntity
  8
0
 62
     3
100
AcDbLine
 10
137.9607839468999
 20
217.4502158365998
 30
0.0
 11
138.9078482273999
 21
217.129171928
 31
0.0
  0
LINE
  5
266
330
2
100
AcDbEntity
  8
0
 62
     3
100
AcDbLine
 10
138.0166694467999
 20
214.5002251199999
 30
0.0
 11
138.907824966
 21
217.1291689863999
 31
0.0
  0
LINE
  5
267
330
2
100
AcDbEntity
  8
0
 62
     3
100
AcDbLine
 10
134.0166726751999
 20
214.3345336913998
 30
0.0
 11
137.0166574163999
 21
214.3345336913998
 31
0.0
  0
LINE
  5
268
330
2
100
AcDbEntity
  8
0
 62
     3
100
AcDbLine
 10
134.0166726751999
 20
215.2032318114998
 30
0.0
 11
137.0166574163999
 21
215.2032318114998
 31
0.0
  0
LINE
  5
269
330
2
100
AcDbEntity
  8
0
 62
     3
100
AcDbLine
 10
134.0166726751999
 20
215.8901214598998
 30
0.0
 11
137.0166574163999
 21
215.8901214598998
 31
0.0
  0
LINE
  5
26A
330
2
100
AcDbEntity
  8
0
 62
     3
100
AcDbLine
 10
134.0166726751999
 20
216.4901123047
 30
0.0
 11
137.0166574163999
 21
216.4901123047
 31
0.0
  0
LINE
  5
26B
330
2
100
AcDbEntity
  8
0
 62
     3
100
AcDbLine
 10
134.0166726751999
 20
216.9132385254
 30
0.0
 11
137.0166574163999
 21
216.9132385254
 31
0.0
  0
LINE
  5
26C
330
2
100
AcDbEntity
  8
0
 62
     3
100
AcDbLine
 10
133.2166848821999
 20
217.4000244139999
 30
0.0
 11
137.0166574163999
 21
217.4000244139999
 31
0.0
  0
LINE
  5
26D
330
2
100
AcDbEntity
  8
0
 62
     3
100
AcDbLine
 10
133.2166848821999
 20
216.8791961669999
 30
0.0
 11
132.016687934
 21
216.8791961669999
 31
0.0
  0
LINE
  5
26E
330
2
100
AcDbEntity
  8
0
 62
     3
100
AcDbLine
 10
134.0166726751999
 20
215.2032318114998
 30
0.0
 11
134.0166726751999
 21
215.8901214598998
 31
0.0
  0
LINE
  5
26F
330
2
100
AcDbEntity
  8
0
 62
     3
100
AcDbLine
 10
134.0167489690997
 20
216.9132843016999
 30
0.0
 11
134.0167489690997
 21
216.4901733397999
 31
0.0
  0
LINE
  5
270
330
2
100
AcDbEntity
  8
0
 62
     3
100
AcDbLine
 10
133.2166848821999
 20
217.4000244139999
 30
0.0
 11
133.2166848821999
 21
216.8791961669999
 31
0.0
  0
LINE
  5
271
330
2
100
AcDbEntity
  8
0
 62
     3
100
AcDbLine
 10
137.0166574163999
 20
217.4502716063999
 30
0.0
 11
137.9607644719999
 21
217.4502716063999
 31
0.0
  0
LINE
  5
272
330
2
100
AcDbEntity
  8
0
 62
     3
100
AcDbLine
 10
137.0166580456998
 20
214.6650730905
 30
0.0
 11
137.9607626634999
 21
217.4502188822998
 31
0.0
  0
LINE
  5
273
330
2
100
AcDbEntity
  8
0
 62
     3
100
AcDbLine
 10
140.217203681
 20
217.2002563475999
 30
0.0
 11
140.8172097844999
 21
217.2002563475999
 31
0.0
  0
LINE
  5
274
330
2
100
AcDbEntity
  8
0
 62
     3
100
AcDbLine
 10
185.8642678899999
 20
160.7001953124999
 30
0.0
 11
164.2641702337999
 21
160.7001953124999
 31
0.0
  0
LINE
  5
275
330
2
100
AcDbEntity
  8
0
 62
     3
100
AcDbLine
 10
185.8642678899999
 20
176.3001556396
 30
0.0
 11
164.2641702337999
 21
176.3001556396
 31
0.0
  0
LINE
  5
276
330
2
100
AcDbEntity
  8
0
 62
     3
100
AcDbLine
 10
185.2642617864999
 20
176.0001525879
 30
0.0
 11
164.8640237493999
 21
176.0001525879
 31
0.0
  0
LINE
  5
277
330
2
100
AcDbEntity
  8
0
 62
     3
100
AcDbLine
 10
185.2642465277
 20
161.0001831054
 30
0.0
 11
164.8640237493999
 21
161.0001831054
 31
0.0
  0
LINE
  5
278
330
2
100
AcDbEntity
  8
0
  6
CENTER
 62
     3
100
AcDbLine
 10
189.0140969915999
 20
168.5
 30
0.0
 11
161.1140969915998
 21
168.5
 31
0.0
  0
LINE
  5
279
330
2
100
AcDbEntity
  8
0
 62
     3
100
AcDbLine
 10
186.4154439064998
 20
177.1501037597
 30
0.0
 11
163.7132180317999
 21
177.1501037597
 31
0.0
  0
LINE
  5
27A
330
2
100
AcDbEntity
  8
0
 62
     3
100
AcDbLine
 10
186.4152262472
 20
159.8502166747999
 30
0.0
 11
163.7138546489
 21
159.8502166747999
 31
0.0
  0
LINE
  5
27B
330
2
100
AcDbEntity
  8
0
 62
     3
100
AcDbLine
 10
186.7140280447
 20
159.5501678466
 30
0.0
 11
163.4138278027999
 21
159.5501678466
 31
0.0
  0
LINE
  5
27C
330
2
100
AcDbEntity
  8
0
 62
     3
100
AcDbLine
 10
186.7155615373999
 20
177.4501525878999
 30
0.0
 11
163.4132989246998
 21
177.4501525878999
 31
0.0
  0
LINE
  5
27D
330
2
100
AcDbEntity
  8
0
 62
     3
100
AcDbLine
 10
149.5177713079999
 20
159.7438457640999
 30
0.0
 11
149.5177713079999
 21
177.2547743367999
 31
0.0
  0
LINE
  5
27E
330
2
100
AcDbEntity
  8
0
 62
     3
100
AcDbLine
 10
149.8176980657999
 20
160.0512656086999
 30
0.0
 11
149.8176980657999
 21
176.9412152557999
 31
0.0
  0
LINE
  5
27F
330
2
100
AcDbEntity
  8
0
 62
     3
100
AcDbLine
 10
149.5092634727999
 20
159.7428317436999
 30
0.0
 11
149.8162060512999
 21
160.0497735976999
 31
0.0
  0
LINE
  5
280
330
2
100
AcDbEntity
  8
0
 62
     3
100
AcDbLine
 10
149.8162815791999
 20
176.9426961248
 30
0.0
 11
149.5164026588998
 21
177.2562051939999
 31
0.0
  0
LINE
  5
281
330
2
100
AcDbEntity
  8
0
 62
     3
100
AcDbLine
 10
164.2640481633999
 20
159.8502166747999
 30
0.0
 11
164.2640481633999
 21
176.3001556396
 31
0.0
  0
LINE
  5
282
330
2
100
AcDbEntity
  8
0
 62
     3
100
AcDbLine
 10
164.5640359563999
 20
161.3001708983999
 30
0.0
 11
164.5640359563999
 21
175.7001495360999
 31
0.0
  0
LINE
  5
283
330
2
100
AcDbEntity
  8
0
  6
CENTER
 62
     3
100
AcDbLine
 10
175.0641122503998
 20
179.4501525879
 30
0.0
 11
175.0641122503998
 21
157.5501678466
 31
0.0
  0
LINE
  5
284
330
2
100
AcDbEntity
  8
0
 62
     3
100
AcDbLine
 10
163.4140237493999
 20
160.1500479028
 30
0.0
 11
163.4140237493999
 21
176.8490481103
 31
0.0
  0
LINE
  5
285
330
2
100
AcDbEntity
  8
0
 62
     3
100
AcDbLine
 10
163.1140969915998
 20
159.8493648013
 30
0.0
 11
163.1140969915998
 21
177.1492801256
 31
0.0
  0
LINE
  5
286
330
2
100
AcDbEntity
  8
0
 62
     3
100
AcDbLine
 10
163.7143962832998
 20
159.8497397319999
 30
0.0
 11
163.4145204381
 21
159.5498868381
 31
0.0
  0
LINE
  5
287
330
2
100
AcDbEntity
  8
0
 62
     3
100
AcDbLine
 10
163.4144570758999
 20
160.1497018973
 30
0.0
 11
163.1145812306999
 21
159.8498490032999
 31
0.0
  0
LINE
  5
288
330
2
100
AcDbEntity
  8
0
 62
     3
100
AcDbLine
 10
163.7144994289999
 20
159.8495718939
 30
0.0
 11
163.4145488943999
 21
160.1495227573
 31
0.0
  0
LINE
  5
289
330
2
100
AcDbEntity
  8
0
 62
     3
100
AcDbLine
 10
163.4144934148999
 20
159.5495022326
 30
0.0
 11
163.1145431583999
 21
159.8494533488
 31
0.0
  0
LINE
  5
28A
330
2
100
AcDbEntity
  8
0
 62
     3
100
AcDbLine
 10
165.7139993352999
 20
160.7001953124999
 30
0.0
 11
165.7139993352999
 21
159.8502166747999
 31
0.0
  0
LINE
  5
28B
330
2
100
AcDbEntity
  8
0
 62
     3
100
AcDbLine
 10
164.5640243060999
 20
161.3001748499
 30
0.0
 11
164.8640292691998
 21
161.0001705190999
 31
0.0
  0
LINE
  5
28C
330
2
100
AcDbEntity
  8
0
 62
     3
100
AcDbLine
 10
163.4141289557
 20
176.8491183914999
 30
0.0
 11
163.1140705264997
 21
177.1493066021
 31
0.0
  0
LINE
  5
28D
330
2
100
AcDbEntity
  8
0
 62
     3
100
AcDbLine
 10
163.7142308307999
 20
177.1490905225999
 30
0.0
 11
163.4141724015998
 21
177.4492787330999
 31
0.0
  0
LINE
  5
28E
330
2
100
AcDbEntity
  8
0
 62
     3
100
AcDbLine
 10
163.4144481627999
 20
176.8494725227
 30
0.0
 11
163.7143128862999
 21
177.1493365384
 31
0.0
  0
LINE
  5
28F
330
2
100
AcDbEntity
  8
0
 62
     3
100
AcDbLine
 10
163.1144324014
 20
177.1497085467
 30
0.0
 11
163.4142967204998
 21
177.4495729668999
 31
0.0
  0
LINE
  5
290
330
2
100
AcDbEntity
  8
0
 62
     3
100
AcDbLine
 10
164.8640339890999
 20
176.0001363605999
 30
0.0
 11
164.5640400937999
 21
175.7001425664999
 31
0.0
  0
LINE
  5
291
330
2
100
AcDbEntity
  8
0
 62
     3
100
AcDbLine
 10
171.8640847844998
 20
177.1501037597
 30
0.0
 11
171.8640847844998
 21
176.3001556396
 31
0.0
  0
LINE
  5
292
330
2
100
AcDbEntity
  8
0
 62
     3
100
AcDbLine
 10
149.5163217229998
 20
220.2556330594999
 30
0.0
 11
149.5163217229998
 21
211.9768832556998
 31
0.0
  0
LINE
  5
293
330
2
100
AcDbEntity
  8
0
 62
     3
100
AcDbLine
 10
149.8170877141999
 20
197.0506434252999
 30
0.0
 11
149.8170877141999
 21
219.9411966000998
 31
0.0
  0
LINE
  5
294
330
2
100
AcDbEntity
  8
0
 62
     3
100
AcDbLine
 10
149.5163217229998
 20
205.0230977939999
 30
0.0
 11
149.5163217229998
 21
196.7498781439998
 31
0.0
  0
LINE
  5
295
330
2
100
AcDbEntity
  8
0
 62
     3
100
AcDbLine
 10
149.5087215395999
 20
196.7422779784998
 30
0.0
 11
149.8154916107999
 21
197.0490473256999
 31
0.0
  0
LINE
  5
296
330
2
100
AcDbEntity
  8
0
 62
     3
100
AcDbLine
 10
149.8170870377999
 20
211.6999874938999
 30
0.0
 11
149.5163042687999
 21
211.9768596242999
 31
0.0
  0
LINE
  5
297
330
2
100
AcDbEntity
  8
0
 62
     3
100
AcDbLine
 10
149.8170840703999
 20
205.2999935318
 30
0.0
 11
149.5163016332999
 21
205.0230759498997
 31
0.0
  0
LINE
  5
298
330
2
100
AcDbEntity
  8
0
 62
     3
100
AcDbLine
 10
147.3172065228999
 20
211.5000019042998
 30
0.0
 11
149.8170926949998
 21
211.6999994409999
 31
0.0
  0
LINE
  5
299
330
2
100
AcDbEntity
  8
0
 62
     3
100
AcDbLine
 10
149.8170750871
 20
205.2999966438999
 30
0.0
 11
147.3172053209998
 21
205.5000080612999
 31
0.0
  0
LINE
  5
29A
330
2
100
AcDbEntity
  8
0
 62
     3
100
AcDbLine
 10
149.5163217229998
 20
211.6759185790999
 30
0.0
 11
149.5163217229998
 21
205.3240356444999
 31
0.0
  0
LINE
  5
29B
330
2
100
AcDbEntity
  8
0
 62
     3
100
AcDbLine
 10
147.0172067327998
 20
205.2230377197
 30
0.0
 11
147.0172067327998
 21
211.7769470213999
 31
0.0
  0
LINE
  5
29C
330
2
100
AcDbEntity
  8
0
 62
     3
100
AcDbLine
 10
147.3172097845
 20
205.5000152588
 30
0.0
 11
147.3172097845
 21
211.5000152588
 31
0.0
  0
LINE
  5
29D
330
2
100
AcDbEntity
  8
0
 62
     3
100
AcDbLine
 10
147.3172250432999
 20
207.0000152588
 30
0.0
 11
147.3172250432999
 21
210.0000152588
 31
0.0
  0
LINE
  5
29E
330
2
100
AcDbEntity
  8
0
 62
     3
100
AcDbLine
 10
149.5163233349998
 20
205.0230976649999
 30
0.0
 11
147.0171988677999
 21
205.2230494519
 31
0.0
  0
LINE
  5
29F
330
2
100
AcDbEntity
  8
0
 62
     3
100
AcDbLine
 10
147.3172055759
 20
205.4999835894999
 30
0.0
 11
147.0172037794
 21
205.2230072127
 31
0.0
  0
LINE
  5
2A0
330
2
100
AcDbEntity
  8
0
 62
     3
100
AcDbLine
 10
147.0172029606
 20
211.7769471138
 30
0.0
 11
149.5163134129998
 21
211.9768825907998
 31
0.0
  0
LINE
  5
2A1
330
2
100
AcDbEntity
  8
0
 62
     3
100
AcDbLine
 10
147.3172186576998
 20
211.4999921766998
 30
0.0
 11
147.0172164814998
 21
211.7769231514998
 31
0.0
  0
LINE
  5
2A2
330
2
100
AcDbEntity
  8
0
 62
     3
100
AcDbLine
 10
149.8156172123
 20
219.9427339396
 30
0.0
 11
149.5156539140999
 21
220.2563312216998
 31
0.0
  0
LINE
  5
2A3
330
2
100
AcDbEntity
  8
0
 62
     3
100
AcDbLine
 10
185.8642678899999
 20
159.8502166747999
 30
0.0
 11
185.8642678899999
 21
176.3001556396
 31
0.0
  0
LINE
  5
2A4
330
2
100
AcDbEntity
  8
0
 62
     3
100
AcDbLine
 10
185.5642648382998
 20
161.3001708983999
 30
0.0
 11
185.5642648382998
 21
175.7001342772999
 31
0.0
  0
LINE
  5
2A5
330
2
100
AcDbEntity
  8
0
 62
     3
100
AcDbLine
 10
186.7142923040999
 20
160.1498979185
 30
0.0
 11
186.7142923040999
 21
176.8490891056999
 31
0.0
  0
LINE
  5
2A6
330
2
100
AcDbEntity
  8
0
 62
     3
100
AcDbLine
 10
187.0140969915999
 20
159.8488747875
 30
0.0
 11
187.0140969915999
 21
177.1490310497
 31
0.0
  0
LINE
  5
2A7
330
2
100
AcDbEntity
  8
0
 62
     3
100
AcDbLine
 10
186.7146248166999
 20
160.1495658028999
 30
0.0
 11
187.0149273764999
 21
159.8496218240999
 31
0.0
  0
LINE
  5
2A8
330
2
100
AcDbEntity
  8
0
 62
     3
100
AcDbLine
 10
186.7150559520997
 20
159.5498331933999
 30
0.0
 11
187.0150926769998
 21
159.8498704747
 31
0.0
  0
LINE
  5
2A9
330
2
100
AcDbEntity
  8
0
 62
     3
100
AcDbLine
 10
184.4143167181
 20
160.7001953124999
 30
0.0
 11
184.4143167181
 21
159.8502166747999
 31
0.0
  0
LINE
  5
2AA
330
2
100
AcDbEntity
  8
0
 62
     3
100
AcDbLine
 10
185.5642464717
 20
161.3001746802
 30
0.0
 11
185.2642358440999
 21
161.000176014
 31
0.0
  0
LINE
  5
2AB
330
2
100
AcDbEntity
  8
0
 62
     3
100
AcDbLine
 10
186.7146422647999
 20
159.5495540167
 30
0.0
 11
186.4145099390999
 21
159.8494956971999
 31
0.0
  0
LINE
  5
2AC
330
2
100
AcDbEntity
  8
0
 62
     3
100
AcDbLine
 10
186.4146636290999
 20
159.8496540566
 30
0.0
 11
186.7145279986999
 21
160.1495184515
 31
0.0
  0
LINE
  5
2AD
330
2
100
AcDbEntity
  8
0
 62
     3
100
AcDbLine
 10
178.2641139180999
 20
177.1501037597
 30
0.0
 11
178.2641033913999
 21
176.3001547716999
 31
0.0
  0
LINE
  5
2AE
330
2
100
AcDbEntity
  8
0
 62
     3
100
AcDbLine
 10
187.0145701592998
 20
177.1495044340999
 30
0.0
 11
186.7147744159
 21
176.8495714383
 31
0.0
  0
LINE
  5
2AF
330
2
100
AcDbEntity
  8
0
 62
     3
100
AcDbLine
 10
187.0147954866999
 20
177.1496545119999
 30
0.0
 11
186.7148450026999
 21
177.4496054005999
 31
0.0
  0
LINE
  5
2B0
330
2
100
AcDbEntity
  8
0
 62
     3
100
AcDbLine
 10
185.2642544076998
 20
176.0001404920999
 30
0.0
 11
185.5642507473999
 21
175.7001275378999
 31
0.0
  0
LINE
  5
2B1
330
2
100
AcDbEntity
  8
0
 62
     3
100
AcDbLine
 10
186.7146567950999
 20
177.449248053
 30
0.0
 11
186.4147580491999
 21
177.1494180596999
 31
0.0
  0
LINE
  5
2B2
330
2
100
AcDbEntity
  8
0
 62
     3
100
AcDbLine
 10
186.7148658899999
 20
176.8497620261999
 30
0.0
 11
186.4148286845999
 21
177.1497988269
 31
0.0
  0
LINE
  5
2C4
330
2
100
AcDbEntity
  8
0
100
AcDbLine
 10
210.0
 20
297.0
 30
0.0
 11
0.0
 21
297.0
 31
0.0
  0
TEXT
  5
2EF
330
2
100
AcDbEntity
  8
0
 62
     7
100
AcDbText
 10
108.0
 20
100.0000029552498
 30
0.0
 40
2.999994089499998
  1
AB6G-M2*
 11
108.0
 21
101.4999999999999
 31
0.0
100
AcDbText
 73
     2
  0
TEXT
  5
2F0
330
2
100
AcDbEntity
  8
0
 62
     7
100
AcDbText
 10
108.0
 20
105.0000029552498
 30
0.0
 40
2.999994089499998
  1
AB6G-M2P*
 11
108.0
 21
106.4999999999999
 31
0.0
100
AcDbText
 73
     2
  0
TEXT
  5
2F1
330
2
100
AcDbEntity
  8
0
 62
     7
100
AcDbText
 10
108.0
 20
110.0000029552498
 30
0.0
 40
2.999994089499998
  1
AB6G-M1*
 11
108.0
 21
111.4999999999999
 31
0.0
100
AcDbText
 73
     2
  0
TEXT
  5
2F2
330
2
100
AcDbEntity
  8
0
 62
     7
100
AcDbText
 10
108.0
 20
115.0000029552499
 30
0.0
 40
2.999994089499998
  1
AB6G-M1P*
 11
108.0
 21
116.5
 31
0.0
100
AcDbText
 73
     2
  0
TEXT
  5
2F3
330
2
100
AcDbEntity
  8
0
 62
     7
100
AcDbText
 10
146.0
 20
100.0000029552498
 30
0.0
 40
2.999994089499998
  1
AB6G-A2*
 11
146.0
 21
101.4999999999999
 31
0.0
100
AcDbText
 73
     2
  0
TEXT
  5
2F8
330
2
100
AcDbEntity
  8
0
 62
     7
100
AcDbText
 10
146.0
 20
105.0000029552498
 30
0.0
 40
2.999994089499998
  1
AB6G-A2P*
 11
146.0
 21
106.4999999999999
 31
0.0
100
AcDbText
 73
     2
  0
TEXT
  5
2F9
330
2
100
AcDbEntity
  8
0
 62
     7
100
AcDbText
 10
146.0
 20
110.0000029552498
 30
0.0
 40
2.999994089499998
  1
AB6G-A1*
 11
146.0
 21
111.4999999999999
 31
0.0
100
AcDbText
 73
     2
  0
TEXT
  5
2FA
330
2
100
AcDbEntity
  8
0
 62
     7
100
AcDbText
 10
146.0
 20
115.0000029552499
 30
0.0
 40
2.999994089499998
  1
AB6G-A1P*
 11
146.0
 21
116.5
 31
0.0
100
AcDbText
 73
     2
  0
ENDSEC
  0
SECTION
  2
OBJECTS
  0
DICTIONARY
  5
7
330
0
100
AcDbDictionary
281
     1
  3
ACAD_GROUP
350
1F
  3
ACAD_LAYOUT
350
B
  3
ACAD_MLINESTYLE
350
20
  3
ACAD_PLOTSETTINGS
350
21
  3
ACAD_PLOTSTYLENAME
350
6
  3
AcDbVariableDictionary
350
2FB
  0
DICTIONARY
  5
1F
102
{ACAD_REACTORS
330
7
102
}
330
7
100
AcDbDictionary
281
     1
  0
DICTIONARY
  5
B
102
{ACAD_REACTORS
330
7
102
}
330
7
100
AcDbDictionary
281
     1
  3
Model
350
A
  3
ﾚｲｱｳﾄ1
350
F
  0
DICTIONARY
  5
20
102
{ACAD_REACTORS
330
7
102
}
330
7
100
AcDbDictionary
281
     1
  3
Standard
350
22
  0
DICTIONARY
  5
21
102
{ACAD_REACTORS
330
7
102
}
330
7
100
AcDbDictionary
281
     1
  0
ACDBDICTIONARYWDFLT
  5
6
102
{ACAD_REACTORS
330
7
102
}
330
7
100
AcDbDictionary
281
     1
  3
Normal
350
5
100
AcDbDictionaryWithDefault
340
5
  0
DICTIONARY
  5
2FB
102
{ACAD_REACTORS
330
7
102
}
330
7
100
AcDbDictionary
281
     1
  3
DIMASSOC
350
2FC
  0
LAYOUT
  5
A
102
{ACAD_REACTORS
330
B
102
}
330
B
100
AcDbPlotSettings
  1

  2
C:\Program Files\AutoCAD 2000i\plotters\DWF Classic.pc3
  4

  6

 40
0.0
 41
0.0
 42
0.0
 43
0.0
 44
0.0
 45
0.0
 46
0.0
 47
0.0
 48
0.0
 49
0.0
140
0.0
141
0.0
142
1.0
143
1.0
 70
  1712
 72
     0
 73
     0
 74
     0
  7

 75
     0
147
1.0
148
0.0
149
0.0
100
AcDbLayout
  1
Model
 70
     1
 71
     0
 10
0.0
 20
0.0
 11
12.0
 21
9.0
 12
0.0
 22
0.0
 32
0.0
 14
0.0
 24
0.0
 34
0.0
 15
0.0
 25
0.0
 35
0.0
146
0.0
 13
0.0
 23
0.0
 33
0.0
 16
1.0
 26
0.0
 36
0.0
 17
0.0
 27
1.0
 37
0.0
 76
     0
330
2
  0
LAYOUT
  5
F
102
{ACAD_REACTORS
330
B
102
}
330
B
100
AcDbPlotSettings
  1

  2
C:\Program Files\AutoCAD 2000i\plotters\DWF Classic.pc3
  4

  6

 40
0.0
 41
0.0
 42
0.0
 43
0.0
 44
0.0
 45
0.0
 46
0.0
 47
0.0
 48
0.0
 49
0.0
140
0.0
141
0.0
142
1.0
143
1.0
 70
   688
 72
     0
 73
     0
 74
     5
  7

 75
    16
147
1.0
148
0.0
149
0.0
100
AcDbLayout
  1
ﾚｲｱｳﾄ1
 70
     1
 71
     1
 10
0.0
 20
0.0
 11
12.0
 21
9.0
 12
0.0
 22
0.0
 32
0.0
 14
1.000000000000000E+20
 24
1.000000000000000E+20
 34
1.000000000000000E+20
 15
-1.000000000000000E+20
 25
-1.000000000000000E+20
 35
-1.000000000000000E+20
146
0.0
 13
0.0
 23
0.0
 33
0.0
 16
1.0
 26
0.0
 36
0.0
 17
0.0
 27
1.0
 37
0.0
 76
     0
330
C
  0
MLINESTYLE
  5
22
102
{ACAD_REACTORS
330
20
102
}
330
20
100
AcDbMlineStyle
  2
STANDARD
 70
     0
  3

 62
   256
 51
90.0
 52
90.0
 71
     2
 49
0.5
 62
   256
  6
BYLAYER
 49
-0.5
 62
   256
  6
BYLAYER
  0
ACDBPLACEHOLDER
  5
5
102
{ACAD_REACTORS
330
6
102
}
330
6
  0
DICTIONARYVAR
  5
2FC
102
{ACAD_REACTORS
330
2FB
102
}
330
2FB
100
DictionaryVariables
280
     0
  1
1
  0
ENDSEC
  0
EOF
