  0
SECTION
  2
HEADER
  9
$ACADVER
  1
AC1004
  9
$ANGBASE
 50
0.0000000000
  9
$ANGDIR
 70
     0
  9
$ATTDIA
 70
     0
  9
$ATTMODE
 70
     1
  9
$ATTREQ
 70
     1
  9
$AUNITS
 70
     0
  9
$AUPREC
 70
     0
  9
$AXISMODE
 70
     0
  9
$AXISUNIT
 10
0.0000000000
 20
0.0000000000
  9
$BLIPMODE
 70
     1
  9
$CECOLOR
 62
   256
  9
$CELTYPE
  6
BYLAYER
  9
$CHAMFERA
 40
0.0000000000
  9
$CHAMFERB
 40
0.0000000000
  9
$CLAYER
  8
0
  9
$COORDS
 70
     0
  9
$DIMALT
 70
     0
  9
$DIMALTD
 70
     2
  9
$DIMALTF
 40
25.4000000000
  9
$DIMAPOST
  1

  9
$DIMASO
 70
     1
  9
$DIMASZ
 40
1.9727878424
  9
$DIMBLK
  1

  9
$DIMBLK1
  1

  9
$DIMBLK2
  1

  9
$DIMCEN
 40
9.0000000000E-02
  9
$DIMDLE
 40
0.0000000000
  9
$DIMDLI
 40
0.3800000000
  9
$DIMEXE
 40
3.8099999428
  9
$DIMEXO
 40
2.5399999619
  9
$DIMLFAC
 40
1.0000000000
  9
$DIMLIM
 70
     0
  9
$DIMPOST
  1

  9
$DIMRND
 40
0.0000000000
  9
$DIMSCALE
 40
1.0000000000
  9
$DIMSE1
 70
     0
  9
$DIMSE2
 70
     0
  9
$DIMSHO
 70
     0
  9
$DIMTAD
 70
     0
  9
$DIMTIH
 70
     0
  9
$DIMTM
 40
0.0000000000
  9
$DIMTOH
 70
     1
  9
$DIMTOL
 70
     0
  9
$DIMTP
 40
0.0000000000
  9
$DIMTSZ
 40
0.0000000000
  9
$DIMTXT
 40
2.9999940395
  9
$DIMZIN
 70
     0
  9
$DRAGMODE
 70
     1
  9
$ELEVATION
 40
0.0000000000
  9
$EXTMAX
 10
3.1750000000
 20
162.0576141357
 30
0.0000000000
  9
$EXTMIN
 10
-192.9783294678
 20
-3.1750000000
 30
0.0000000000
  9
$FASTZOOM
 70
     1
  9
$FILLETRAD
 40
6.2500000000E-02
  9
$FILLMODE
 70
     1
  9
$GRIDMODE
 70
     0
  9
$GRIDUNIT
 10
0.0000000000
 20
0.0000000000
  9
$INSBASE
 10
0.0000000000
 20
0.0000000000
 30
0.0000000000
  9
$LIMCHECK
 70
     0
  9
$LIMMAX
 10
3.1750000000
 20
162.0576141357
  9
$LIMMIN
 10
-192.9783294678
 20
-3.1750000000
  9
$LTSCALE
 40
1.0000000000
  9
$LUNITS
 70
     2
  9
$LUPREC
 70
     3
  9
$MEASUREMENT
 70
     0
  9
$MENU
  1
ACAD
  9
$MIRRTEXT
 70
     0
  9
$ORTHOMODE
 70
     0
  9
$OSMODE
 70
     0
  9
$PDMODE
 70
     0
  9
$PDSIZE
 40
0.0000000000
  9
$PLINEWID
 40
0.0000000000
  9
$PROXYGRAPHICS
 70
     0
  9
$QTEXTMODE
 70
     0
  9
$REGENMODE
 70
     1
  9
$SKETCHINC
 40
0.1000000000
  9
$SKPOLY
 70
     0
  9
$SNAPANG
 50
0.0000000000
  9
$SNAPBASE
 10
0.0000000000
 20
0.0000000000
  9
$SNAPISOPAIR
 70
     0
  9
$SNAPMODE
 70
     0
  9
$SNAPSTYLE
 70
     0
  9
$SNAPUNIT
 10
1.0000000000
 20
1.0000000000
  9
$SPLFRAME
 70
     0
  9
$SPLINESEGS
 70
     8
  9
$TDCREATE
 40
2455483.7535185236
  9
$TDINDWG
 40
0.0000000000
  9
$TDUPDATE
 40
2455483.7535185236
  9
$TDUSRTIMER
 40
0.0000000000
  9
$TEXTSIZE
 40
2.9999940395
  9
$TEXTSTYLE
  7
STANDARD
  9
$THICKNESS
 40
0.0000000000
  9
$TRACEWID
 40
5.0000000000E-02
  9
$USERI1
 70
     0
  9
$USERI2
 70
     0
  9
$USERI3
 70
     0
  9
$USERI4
 70
     0
  9
$USERI5
 70
     0
  9
$USERR1
 40
0.0000000000
  9
$USERR2
 40
0.0000000000
  9
$USERR3
 40
0.0000000000
  9
$USERR4
 40
0.0000000000
  9
$USERR5
 40
0.0000000000
  9
$USRTIMER
 70
     1
  9
$VIEWCTR
 10
-94.9016647339
 20
79.4413070679
  9
$VIEWDIR
 10
0.0000000000
 20
0.0000000000
 30
1.0000000000
  9
$VIEWSIZE
 40
165.2326141357
  0
ENDSEC
  0
SECTION
  2
TABLES
  0
TABLE
  2
LTYPE
 70
     2
  0
LTYPE
  2
SOLID
  3
Solid
 70
    64
 72
    65
 73
     0
 40
0.0000000000
  0
LTYPE
  2
CENTERLINE
  3
Centerline
 70
    64
 72
    65
 73
     4
 40
25.4000000000
 49
19.0500000000
 49
-1.5875000000
 49
3.1750000000
 49
-1.5875000000
  0
ENDTAB
  0
TABLE
  2
LAYER
 70
     3
  0
LAYER
  2
Layer0$C$L0
 70
     0
  6
SOLID
 62
     3
  0
LAYER
  2
Layer1$C$L1
 70
     0
  6
SOLID
 62
     3
  0
LAYER
  2
Layer8$C$L8
 70
     0
  6
SOLID
 62
   192
  0
ENDTAB
  0
TABLE
  2
STYLE
 70
     1
  0
STYLE
  2
STANDARD
  3
txt
  4

 40
0.0000000000
 41
1.0000000000
 42
2.9999940395
 50
0.0000000000
 70
     0
 71
     0
  0
ENDTAB
  0
ENDSEC
  0
SECTION
  2
BLOCKS
  0
BLOCK
  8
Layer8$C$L8
  2
Cadra_attr_0
 70
     2
 10
0.0000000000
 20
0.0000000000
  0
TEXT
  8
Layer8$C$L8
 10
-66.0872999535
 20
16.0000000000
 40
5.0000000000
  1
MA4-H01860
 41
0.8595637360
 72
     5
 11
-27.4069318345
 21
16.0000000000
  0
ATTDEF
  8
Layer8$C$L8
 10
-46.747117
 20
18.500000
 40
0.156000
  1
  
  3

  2
20
 70
    11
  0
ENDBLK
  8
Layer8$C$L8
  0
ENDSEC
  0
SECTION
  2
ENTITIES
  0
LINE
  8
Layer1$C$L1
 10
-114.0116610268
 20
71.0292791320
 11
-110.2926217654
 21
75.6503452015
  0
LINE
  8
Layer1$C$L1
 10
-114.0116610268
 20
43.0292782678
 11
-110.2926217654
 21
38.4082121983
  0
LINE
  8
Layer1$C$L1
 10
-114.0116616436
 20
124.8826147377
 11
-110.2926223822
 21
120.2615486682
  0
LINE
  8
Layer1$C$L1
 10
-114.0116616436
 20
152.8826156019
 11
-110.2926223822
 21
157.5036816714
  0
LINE
  8
Layer1$C$L1
  6
CENTERLINE
 62
     3
 10
-142.1116615318
 20
138.8826151698
 11
-96.0116617461
 21
138.8826151698
  0
TEXT
  8
Layer8$C$L8
 10
-77.9246148562
 20
147.6170880966
 40
2.9999940395
  1
AB6E-4BV01PRH
 72
     5
 11
-39.7268825027
 21
147.6170880966
  0
TEXT
  8
Layer8$C$L8
 10
-77.9246148562
 20
143.1170969623
 40
2.9999940395
  1
AB6E-4BV01PRM
 72
     5
 11
-39.7268825027
 21
143.1170969623
  0
TEXT
  8
Layer8$C$L8
 10
-77.9246148562
 20
138.6171058280
 40
2.9999940395
  1
AB6E-4BV01PY
 72
     5
 11
-42.7268765922
 21
138.6171058280
  0
TEXT
  8
Layer8$C$L8
 10
-77.9246148562
 20
134.1171146938
 40
2.9999940395
  1
AB6E-4BV02PRH
 72
     5
 11
-39.7268825027
 21
134.1171146938
  0
TEXT
  8
Layer8$C$L8
 10
-77.9246148562
 20
129.6171235595
 40
2.9999940395
  1
AB6E-4BV02PRM
 72
     5
 11
-39.7268825027
 21
129.6171235595
  0
TEXT
  8
Layer8$C$L8
 10
-77.9246148562
 20
125.1171324252
 40
2.9999940395
  1
AB6E-4BV02PY
 72
     5
 11
-42.7268765922
 21
125.1171324252
  0
CIRCLE
  8
Layer1$C$L1
 62
     3
 10
-29.6381764632
 20
57.0292786999
 40
3.9000000000
  0
LINE
  8
Layer1$C$L1
  6
CENTERLINE
 62
     3
 10
-166.8033325081
 20
34.0292786999
 11
-166.8033325081
 21
80.0292786999
  0
LINE
  8
Layer1$C$L1
  6
CENTERLINE
 62
     3
 10
-143.8033325081
 20
57.0292786999
 11
-189.8033325081
 21
57.0292786999
  0
LINE
  8
Layer0$C$L0
 62
     3
 10
-171.6725039263
 20
52.9292786798
 11
-171.6725039263
 21
52.8292788497
  0
LINE
  8
Layer0$C$L0
 62
     3
 10
-171.6725039263
 20
53.4292787618
 11
-171.6725039263
 21
53.0292785099
  0
LINE
  8
Layer0$C$L0
 62
     3
 10
-171.6725039263
 20
55.6292787499
 11
-171.6725039263
 21
55.2292787309
  0
LINE
  8
Layer0$C$L0
 62
     3
 10
-171.6725039263
 20
55.8292786429
 11
-171.6725039263
 21
55.7292786964
  0
LINE
  8
Layer0$C$L0
 62
     3
 10
-171.5233325926
 20
54.8292787119
 11
-171.7686429587
 21
54.8292787119
  0
LINE
  8
Layer0$C$L0
 62
     3
 10
-171.7686429587
 20
53.8292787808
 11
-171.5233325926
 21
53.8292787808
  0
LINE
  8
Layer0$C$L0
 62
     3
 10
-171.8687172946
 20
54.8292787119
 11
-171.9033326921
 21
54.8292787119
  0
LINE
  8
Layer0$C$L0
 62
     3
 10
-171.8687172946
 20
53.8292787808
 11
-171.9033326921
 21
53.8292787808
  0
LINE
  8
Layer0$C$L0
 62
     3
 10
-171.8033323963
 20
54.4312018740
 11
-171.8033323963
 21
54.2273556187
  0
LINE
  8
Layer0$C$L0
 62
     3
 10
-171.6725039263
 20
61.0292788899
 11
-171.6725039263
 21
60.6292786381
  0
LINE
  8
Layer0$C$L0
 62
     3
 10
-171.6725039263
 20
61.2292785502
 11
-171.6725039263
 21
61.1292787200
  0
LINE
  8
Layer0$C$L0
 62
     3
 10
-171.6725039263
 20
58.3292787035
 11
-171.6725039263
 21
58.2292787569
  0
LINE
  8
Layer0$C$L0
 62
     3
 10
-171.6725039263
 20
58.8292786690
 11
-171.6725039263
 21
58.4292786500
  0
LINE
  8
Layer0$C$L0
 62
     3
 10
-171.5233325926
 20
60.2292786191
 11
-171.7686429587
 21
60.2292786191
  0
LINE
  8
Layer0$C$L0
 62
     3
 10
-171.7686429587
 20
59.2292786880
 11
-171.5233325926
 21
59.2292786880
  0
LINE
  8
Layer0$C$L0
 62
     3
 10
-171.8033323963
 20
59.8312017812
 11
-171.8033323963
 21
59.6273555259
  0
LINE
  8
Layer0$C$L0
 62
     3
 10
-171.8687172946
 20
60.2292786191
 11
-171.9033326921
 21
60.2292786191
  0
LINE
  8
Layer0$C$L0
 62
     3
 10
-171.8687172946
 20
59.2292786880
 11
-171.9033326921
 21
59.2292786880
  0
LINE
  8
Layer0$C$L0
 62
     3
 10
-171.8879477088
 20
53.3292786988
 11
-171.9033326921
 21
53.3292786988
  0
LINE
  8
Layer0$C$L0
 62
     3
 10
-171.9033326921
 20
60.7292787010
 11
-171.8879477088
 21
60.7292787010
  0
CIRCLE
  8
Layer0$C$L0
 62
     3
 10
-166.8033325081
 20
57.0292786999
 40
12.6000000000
  0
CIRCLE
  8
Layer0$C$L0
 62
     3
 10
-166.8033325081
 20
57.0292786999
 40
12.5000000000
  0
LINE
  8
Layer0$C$L0
 62
     3
 10
-171.9033326921
 20
61.0502089678
 11
-171.8547902969
 21
61.0502089678
  0
LINE
  8
Layer0$C$L0
 62
     3
 10
-171.8746204828
 20
59.0757904413
 11
-171.9033326921
 21
59.0757904413
  0
LINE
  8
Layer0$C$L0
 62
     3
 10
-171.5348074180
 20
59.0757904413
 11
-171.7745466125
 21
59.0757904413
  0
LINE
  8
Layer0$C$L0
 62
     3
 10
-171.8547902969
 20
53.0083484321
 11
-171.9033326921
 21
53.0083484321
  0
LINE
  8
Layer0$C$L0
 62
     3
 10
-171.7933323202
 20
52.9292786798
 11
-171.9033326921
 21
52.9292786798
  0
LINE
  8
Layer0$C$L0
 62
     3
 10
-171.7933323202
 20
61.1292787200
 11
-171.9033326921
 21
61.1292787200
  0
LINE
  8
Layer0$C$L0
 62
     3
 10
-171.7745466125
 20
54.9827669586
 11
-171.5348074180
 21
54.9827669586
  0
LINE
  8
Layer0$C$L0
 62
     3
 10
-171.9033326921
 20
54.9827669586
 11
-171.8746204828
 21
54.9827669586
  0
LINE
  8
Layer0$C$L0
 62
     3
 10
-171.8764095534
 20
55.0292786049
 11
-171.9033326921
 21
55.0292786049
  0
LINE
  8
Layer0$C$L0
 62
     3
 10
-171.5233325926
 20
55.0292786049
 11
-171.7763356832
 21
55.0292786049
  0
LINE
  8
Layer0$C$L0
 62
     3
 10
-171.8764095534
 20
59.0292787949
 11
-171.9033326921
 21
59.0292787949
  0
LINE
  8
Layer0$C$L0
 62
     3
 10
-171.5233325926
 20
59.0292787949
 11
-171.7763356832
 21
59.0292787949
  0
ARC
  8
Layer0$C$L0
 62
     3
 10
-166.8033325081
 20
57.0292786999
 40
7.9000000000
 50
96.1766926843
 51
443.8233073157
  0
LINE
  8
Layer0$C$L0
 62
     3
 10
-167.6533325193
 20
64.9839944510
 11
-167.6533325193
 21
64.8834181322
  0
LINE
  8
Layer0$C$L0
 62
     3
 10
-165.9533324968
 20
64.8834181322
 11
-165.9533324968
 21
64.9839944510
  0
LINE
  8
Layer0$C$L0
 62
     3
 10
-160.0099531901
 20
56.7292786857
 11
-160.0600024653
 21
56.7292786857
  0
LINE
  8
Layer0$C$L0
 62
     3
 10
-160.0600024653
 20
57.3292787142
 11
-160.0099531901
 21
57.3292787142
  0
LINE
  8
Layer0$C$L0
 62
     3
 10
-160.1974116606
 20
58.6422905164
 11
-160.2568412167
 21
58.6742566504
  0
LINE
  8
Layer0$C$L0
 62
     3
 10
-160.2568412167
 20
55.3843007494
 11
-160.1974116606
 21
55.4162668834
  0
LINE
  8
Layer0$C$L0
 62
     3
 10
-160.3816221435
 20
54.7928453727
 11
-160.4410516997
 21
54.7745316128
  0
LINE
  8
Layer0$C$L0
 62
     3
 10
-160.4410516997
 20
59.2840257871
 11
-160.3816221435
 21
59.2657120271
  0
ARC
  8
Layer0$C$L0
 62
     3
 10
-166.8033325081
 20
57.0292786999
 40
6.6000000000
 50
219.4005687537
 51
221.8103148958
  0
LINE
  8
Layer0$C$L0
 62
     3
 10
-171.9033326921
 20
52.8400067544
 11
-171.9033326921
 21
56.0292786524
  0
LINE
  8
Layer0$C$L0
 62
     3
 10
-171.9033326921
 20
58.0292787474
 11
-171.9033326921
 21
61.2185506454
  0
ARC
  8
Layer0$C$L0
 62
     3
 10
-166.8033325081
 20
57.0292786999
 40
6.6000000000
 50
138.1896851042
 51
140.5994312463
  0
LINE
  8
Layer0$C$L0
 62
     3
 10
-170.8033326981
 20
51.7795167236
 11
-170.8033326981
 21
51.8425165049
  0
LINE
  8
Layer0$C$L0
 62
     3
 10
-170.8033326981
 20
62.2160408950
 11
-170.8033326981
 21
62.2790406762
  0
ARC
  8
Layer0$C$L0
 62
     3
 10
-166.8033325081
 20
57.0292786999
 40
6.6000000000
 50
45.8156148467
 51
132.9858860802
  0
ARC
  8
Layer0$C$L0
 62
     3
 10
-166.8033325081
 20
57.0292786999
 40
6.6000000000
 50
227.0141139198
 51
314.1843851533
  0
LINE
  8
Layer0$C$L0
 62
     3
 10
-162.2033324060
 20
52.9292786798
 11
-161.3783901525
 21
52.9292786798
  0
LINE
  8
Layer0$C$L0
 62
     3
 10
-161.3783901525
 20
61.1292787200
 11
-162.2033324060
 21
61.1292787200
  0
LINE
  8
Layer0$C$L0
 62
     3
 10
-172.2033326481
 20
52.6292787238
 11
-171.3033323144
 21
52.6292787238
  0
LINE
  8
Layer0$C$L0
 62
     3
 10
-171.3033323144
 20
61.4292786761
 11
-172.2033326481
 21
61.4292786761
  0
LINE
  8
Layer0$C$L0
 62
     3
 10
-162.2033324060
 20
61.3292788460
 11
-161.5355056678
 21
61.3292788460
  0
ARC
  8
Layer0$C$L0
 62
     3
 10
-166.8033325081
 20
57.0292786999
 40
6.8000000000
 50
320.7760676014
 51
399.2239323986
  0
LINE
  8
Layer0$C$L0
 62
     3
 10
-161.5355056678
 20
52.7292785539
 11
-162.2033324060
 21
52.7292785539
  0
LINE
  8
Layer0$C$L0
 62
     3
 10
-165.4033325580
 20
50.2728002450
 11
-165.4033325580
 21
50.5794726616
  0
ARC
  8
Layer0$C$L0
 62
     3
 10
-166.8033325081
 20
57.0292786999
 40
6.9000000000
 50
258.2934902067
 51
281.7065097933
  0
LINE
  8
Layer0$C$L0
 62
     3
 10
-168.2033324581
 20
50.5794726616
 11
-168.2033324581
 21
50.2728002450
  0
LINE
  8
Layer0$C$L0
 62
     3
 10
-171.3033323144
 20
52.6292787238
 11
-171.3033323144
 21
52.2012354179
  0
LINE
  8
Layer0$C$L0
 62
     3
 10
-171.3033323144
 20
52.4292785979
 11
-172.0033325222
 21
52.4292785979
  0
LINE
  8
Layer0$C$L0
 62
     3
 10
-172.0033325222
 20
52.4292785979
 11
-172.4033323084
 21
52.8292788497
  0
LINE
  8
Layer0$C$L0
 62
     3
 10
-172.4033323084
 20
53.5364288210
 11
-172.4033323084
 21
52.8292788497
  0
ARC
  8
Layer0$C$L0
 62
     3
 10
-166.8033325081
 20
57.0292786999
 40
6.6000000000
 50
148.0472535997
 51
211.9527464003
  0
LINE
  8
Layer0$C$L0
 62
     3
 10
-172.4033323084
 20
61.2292785502
 11
-172.4033323084
 21
60.5221285789
  0
LINE
  8
Layer0$C$L0
 62
     3
 10
-172.4033323084
 20
61.2292785502
 11
-172.0033325222
 21
61.6292788020
  0
LINE
  8
Layer0$C$L0
 62
     3
 10
-172.0033325222
 20
61.6292788020
 11
-171.3033323144
 21
61.6292788020
  0
LINE
  8
Layer0$C$L0
 62
     3
 10
-171.3033323144
 20
61.8573219820
 11
-171.3033323144
 21
61.4292786761
  0
LINE
  8
Layer0$C$L0
 62
     3
 10
-168.2033324581
 20
63.7857571548
 11
-168.2033324581
 21
63.4790847382
  0
ARC
  8
Layer0$C$L0
 62
     3
 10
-166.8033325081
 20
57.0292786999
 40
6.9000000000
 50
78.2934902067
 51
101.7065097933
  0
LINE
  8
Layer0$C$L0
 62
     3
 10
-165.4033325580
 20
63.4790847382
 11
-165.4033325580
 21
63.7857571548
  0
CIRCLE
  8
Layer0$C$L0
 62
     3
 10
-166.8033325081
 20
57.0292786999
 40
7.4000000000
  0
CIRCLE
  8
Layer0$C$L0
 62
     3
 10
-166.8033325081
 20
57.0292786999
 40
7.2000000000
  0
CIRCLE
  8
Layer0$C$L0
 62
     3
 10
-166.8033325081
 20
57.0292786999
 40
11.4500000000
  0
LINE
  8
Layer0$C$L0
 62
     3
 10
-165.2037948337
 20
64.8677402480
 11
-165.2045915802
 21
64.7658172368
  0
LINE
  8
Layer0$C$L0
 62
     3
 10
-168.4028701824
 20
49.1908171518
 11
-168.4020734359
 21
49.2927401631
  0
ARC
  8
Layer0$C$L0
 62
     3
 10
-166.8033325081
 20
57.0292786999
 40
10.9000000000
 50
357.8576025019
 51
362.1423974981
  0
ARC
  8
Layer0$C$L0
 62
     3
 10
-156.1108117576
 20
57.4292786999
 40
0.2000000000
 50
2.1423974981
 51
90.0000000000
  0
ARC
  8
Layer0$C$L0
 62
     3
 10
-156.1108117576
 20
56.6292786999
 40
0.2000000000
 50
270.0000000000
 51
357.8576025019
  0
ARC
  8
Layer0$C$L0
 62
     3
 10
-156.3716229490
 20
59.4103363798
 40
0.2000000000
 50
285.0000000000
 51
372.8576025019
  0
ARC
  8
Layer0$C$L0
 62
     3
 10
-156.3716229490
 20
54.6482210201
 40
0.2000000000
 50
347.1423974981
 51
435.0000000000
  0
ARC
  8
Layer0$C$L0
 62
     3
 10
-166.8033325081
 20
57.0292786999
 40
10.9000000000
 50
12.8576025019
 51
17.1423974981
  0
ARC
  8
Layer0$C$L0
 62
     3
 10
-166.8033325081
 20
57.0292786999
 40
10.9000000000
 50
342.8576025019
 51
347.1423974981
  0
ARC
  8
Layer0$C$L0
 62
     3
 10
-156.5786781851
 20
53.8754803590
 40
0.2000000000
 50
255.0000000000
 51
342.8576025019
  0
ARC
  8
Layer0$C$L0
 62
     3
 10
-156.5786781851
 20
60.1830770408
 40
0.2000000000
 50
17.1423974981
 51
105.0000000000
  0
ARC
  8
Layer0$C$L0
 62
     3
 10
-157.3433379076
 20
62.0291289137
 40
0.2000000000
 50
300.0000000000
 51
387.8576025019
  0
ARC
  8
Layer0$C$L0
 62
     3
 10
-157.3433379076
 20
52.0294284862
 40
0.2000000000
 50
332.1423974981
 51
420.0000000000
  0
ARC
  8
Layer0$C$L0
 62
     3
 10
-166.8033325081
 20
57.0292786999
 40
10.9000000000
 50
27.8576025019
 51
32.1423974981
  0
ARC
  8
Layer0$C$L0
 62
     3
 10
-166.8033325081
 20
57.0292786999
 40
10.9000000000
 50
327.8576025019
 51
332.1423974981
  0
ARC
  8
Layer0$C$L0
 62
     3
 10
-157.7433379076
 20
51.3366081632
 40
0.2000000000
 50
240.0000000000
 51
327.8576025019
  0
ARC
  8
Layer0$C$L0
 62
     3
 10
-157.7433379076
 20
62.7219492367
 40
0.2000000000
 50
32.1423974981
 51
120.0000000000
  0
ARC
  8
Layer0$C$L0
 62
     3
 10
-158.9597358649
 20
64.3071899181
 40
0.2000000000
 50
315.0000000000
 51
402.8576025019
  0
ARC
  8
Layer0$C$L0
 62
     3
 10
-158.9597358649
 20
49.7513674817
 40
0.2000000000
 50
317.1423974981
 51
405.0000000000
  0
ARC
  8
Layer0$C$L0
 62
     3
 10
-166.8033325081
 20
57.0292786999
 40
10.9000000000
 50
42.8576025019
 51
47.1423974981
  0
ARC
  8
Layer0$C$L0
 62
     3
 10
-166.8033325081
 20
57.0292786999
 40
10.9000000000
 50
312.8576025019
 51
317.1423974981
  0
ARC
  8
Layer0$C$L0
 62
     3
 10
-159.5254212899
 20
64.8728753431
 40
0.2000000000
 50
47.1423974981
 51
135.0000000000
  0
ARC
  8
Layer0$C$L0
 62
     3
 10
-159.5254212899
 20
49.1856820568
 40
0.2000000000
 50
225.0000000000
 51
312.8576025019
  0
ARC
  8
Layer0$C$L0
 62
     3
 10
-161.1106619713
 20
66.0892733004
 40
0.2000000000
 50
330.0000000000
 51
417.8576025019
  0
ARC
  8
Layer0$C$L0
 62
     3
 10
-161.1106619713
 20
47.9692840995
 40
0.2000000000
 50
302.1423974981
 51
390.0000000000
  0
ARC
  8
Layer0$C$L0
 62
     3
 10
-166.8033325081
 20
57.0292786999
 40
10.9000000000
 50
57.8576025019
 51
62.1423974981
  0
ARC
  8
Layer0$C$L0
 62
     3
 10
-166.8033325081
 20
57.0292786999
 40
10.9000000000
 50
297.8576025019
 51
302.1423974981
  0
ARC
  8
Layer0$C$L0
 62
     3
 10
-161.8034822943
 20
47.5692840995
 40
0.2000000000
 50
210.0000000000
 51
297.8576025019
  0
ARC
  8
Layer0$C$L0
 62
     3
 10
-161.8034822943
 20
66.4892733004
 40
0.2000000000
 50
62.1423974981
 51
150.0000000000
  0
ARC
  8
Layer0$C$L0
 62
     3
 10
-163.6495341672
 20
46.8046243769
 40
0.2000000000
 50
287.1423974981
 51
375.0000000000
  0
ARC
  8
Layer0$C$L0
 62
     3
 10
-163.6495341672
 20
67.2539330229
 40
0.2000000000
 50
345.0000000000
 51
432.8576025019
  0
ARC
  8
Layer0$C$L0
 62
     3
 10
-166.8033325081
 20
57.0292786999
 40
10.9000000000
 50
282.8576025019
 51
287.1423974981
  0
ARC
  8
Layer0$C$L0
 62
     3
 10
-166.8033325081
 20
57.0292786999
 40
10.9000000000
 50
72.8576025019
 51
77.1423974981
  0
ARC
  8
Layer0$C$L0
 62
     3
 10
-164.4222748282
 20
67.4609882590
 40
0.2000000000
 50
77.1423974981
 51
165.0000000000
  0
ARC
  8
Layer0$C$L0
 62
     3
 10
-164.4222748282
 20
46.5975691408
 40
0.2000000000
 50
195.0000000000
 51
282.8576025019
  0
ARC
  8
Layer0$C$L0
 62
     3
 10
-166.4033325081
 20
46.3367579494
 40
0.2000000000
 50
272.1423974981
 51
360.0000000000
  0
ARC
  8
Layer0$C$L0
 62
     3
 10
-166.4033325081
 20
67.7217994504
 40
0.2000000000
 50
0.0000000000
 51
87.8576025019
  0
ARC
  8
Layer0$C$L0
 62
     3
 10
-166.8033325081
 20
57.0292786999
 40
10.9000000000
 50
267.8576025019
 51
272.1423974981
  0
ARC
  8
Layer0$C$L0
 62
     3
 10
-166.8033325081
 20
57.0292786999
 40
10.9000000000
 50
87.8576025019
 51
92.1423974981
  0
ARC
  8
Layer0$C$L0
 62
     3
 10
-167.2033325081
 20
46.3367579494
 40
0.2000000000
 50
180.0000000000
 51
267.8576025019
  0
ARC
  8
Layer0$C$L0
 62
     3
 10
-167.2033325081
 20
67.7217994504
 40
0.2000000000
 50
92.1423974981
 51
180.0000000000
  0
ARC
  8
Layer0$C$L0
 62
     3
 10
-169.1843901879
 20
67.4609882590
 40
0.2000000000
 50
15.0000000000
 51
102.8576025019
  0
ARC
  8
Layer0$C$L0
 62
     3
 10
-169.1843901879
 20
46.5975691408
 40
0.2000000000
 50
257.1423974981
 51
345.0000000000
  0
ARC
  8
Layer0$C$L0
 62
     3
 10
-166.8033325081
 20
57.0292786999
 40
10.9000000000
 50
252.8576025019
 51
257.1423974981
  0
ARC
  8
Layer0$C$L0
 62
     3
 10
-166.8033325081
 20
57.0292786999
 40
10.9000000000
 50
102.8576025019
 51
107.1423974981
  0
ARC
  8
Layer0$C$L0
 62
     3
 10
-169.9571308490
 20
67.2539330229
 40
0.2000000000
 50
107.1423974981
 51
195.0000000000
  0
ARC
  8
Layer0$C$L0
 62
     3
 10
-169.9571308490
 20
46.8046243769
 40
0.2000000000
 50
165.0000000000
 51
252.8576025019
  0
ARC
  8
Layer0$C$L0
 62
     3
 10
-171.8031827218
 20
47.5692840995
 40
0.2000000000
 50
242.1423974981
 51
330.0000000000
  0
ARC
  8
Layer0$C$L0
 62
     3
 10
-171.8031827218
 20
66.4892733004
 40
0.2000000000
 50
30.0000000000
 51
117.8576025019
  0
ARC
  8
Layer0$C$L0
 62
     3
 10
-172.4960030448
 20
66.0892733004
 40
0.2000000000
 50
122.1423974981
 51
210.0000000000
  0
ARC
  8
Layer0$C$L0
 62
     3
 10
-172.4960030448
 20
47.9692840995
 40
0.2000000000
 50
150.0000000000
 51
237.8576025019
  0
ARC
  8
Layer0$C$L0
 62
     3
 10
-166.8033325081
 20
57.0292786999
 40
10.9000000000
 50
237.8576025019
 51
242.1423974981
  0
ARC
  8
Layer0$C$L0
 62
     3
 10
-166.8033325081
 20
57.0292786999
 40
10.9000000000
 50
117.8576025019
 51
122.1423974981
  0
ARC
  8
Layer0$C$L0
 62
     3
 10
-174.0812437263
 20
64.8728753431
 40
0.2000000000
 50
45.0000000000
 51
132.8576025019
  0
ARC
  8
Layer0$C$L0
 62
     3
 10
-174.0812437263
 20
49.1856820568
 40
0.2000000000
 50
227.1423974981
 51
315.0000000000
  0
ARC
  8
Layer0$C$L0
 62
     3
 10
-166.8033325081
 20
57.0292786999
 40
10.9000000000
 50
132.8576025019
 51
137.1423974981
  0
ARC
  8
Layer0$C$L0
 62
     3
 10
-166.8033325081
 20
57.0292786999
 40
10.9000000000
 50
222.8576025019
 51
227.1423974981
  0
ARC
  8
Layer0$C$L0
 62
     3
 10
-174.6469291512
 20
49.7513674817
 40
0.2000000000
 50
135.0000000000
 51
222.8576025019
  0
ARC
  8
Layer0$C$L0
 62
     3
 10
-174.6469291512
 20
64.3071899181
 40
0.2000000000
 50
137.1423974981
 51
225.0000000000
  0
ARC
  8
Layer0$C$L0
 62
     3
 10
-175.8633271085
 20
62.7219492367
 40
0.2000000000
 50
60.0000000000
 51
147.8576025019
  0
ARC
  8
Layer0$C$L0
 62
     3
 10
-175.8633271085
 20
51.3366081632
 40
0.2000000000
 50
212.1423974981
 51
300.0000000000
  0
ARC
  8
Layer0$C$L0
 62
     3
 10
-176.2633271085
 20
52.0294284862
 40
0.2000000000
 50
120.0000000000
 51
207.8576025019
  0
ARC
  8
Layer0$C$L0
 62
     3
 10
-166.8033325081
 20
57.0292786999
 40
10.9000000000
 50
207.8576025019
 51
212.1423974981
  0
ARC
  8
Layer0$C$L0
 62
     3
 10
-176.2633271085
 20
62.0291289137
 40
0.2000000000
 50
152.1423974981
 51
240.0000000000
  0
ARC
  8
Layer0$C$L0
 62
     3
 10
-166.8033325081
 20
57.0292786999
 40
10.9000000000
 50
147.8576025019
 51
152.1423974981
  0
ARC
  8
Layer0$C$L0
 62
     3
 10
-177.0279868311
 20
53.8754803590
 40
0.2000000000
 50
197.1423974981
 51
285.0000000000
  0
ARC
  8
Layer0$C$L0
 62
     3
 10
-177.0279868311
 20
60.1830770408
 40
0.2000000000
 50
75.0000000000
 51
162.8576025019
  0
ARC
  8
Layer0$C$L0
 62
     3
 10
-166.8033325081
 20
57.0292786999
 40
10.9000000000
 50
162.8576025019
 51
167.1423974981
  0
ARC
  8
Layer0$C$L0
 62
     3
 10
-177.2350420672
 20
54.6482210201
 40
0.2000000000
 50
105.0000000000
 51
192.8576025019
  0
ARC
  8
Layer0$C$L0
 62
     3
 10
-177.2350420672
 20
59.4103363798
 40
0.2000000000
 50
167.1423974981
 51
255.0000000000
  0
ARC
  8
Layer0$C$L0
 62
     3
 10
-166.8033325081
 20
57.0292786999
 40
10.9000000000
 50
192.8576025019
 51
197.1423974981
  0
ARC
  8
Layer0$C$L0
 62
     3
 10
-166.8033325081
 20
57.0292786999
 40
10.9000000000
 50
177.8576025019
 51
182.1423974981
  0
ARC
  8
Layer0$C$L0
 62
     3
 10
-177.4958532586
 20
57.4292786999
 40
0.2000000000
 50
90.0000000000
 51
177.8576025019
  0
ARC
  8
Layer0$C$L0
 62
     3
 10
-177.4958532586
 20
56.6292786999
 40
0.2000000000
 50
182.1423974981
 51
270.0000000000
  0
ARC
  8
Layer0$C$L0
 62
     3
 10
-156.3786160879
 20
56.6108037208
 40
0.2958370804
 50
327.3570865983
 51
362.9595353103
  0
ARC
  8
Layer0$C$L0
 62
     3
 10
-156.3786160879
 20
57.4477536791
 40
0.2958370804
 50
357.0404646897
 51
392.6429134017
  0
ARC
  8
Layer0$C$L0
 62
     3
 10
-156.6255298083
 20
59.3231789945
 40
0.2958463074
 50
342.3574489162
 51
377.9587914719
  0
ARC
  8
Layer0$C$L0
 62
     3
 10
-156.6255298083
 20
54.7353784054
 40
0.2958463074
 50
342.0412085281
 51
377.6425510838
  0
ARC
  8
Layer0$C$L0
 62
     3
 10
-166.8033325081
 20
57.0292786999
 40
10.7000000000
 50
3.2017575954
 51
11.7982424046
  0
ARC
  8
Layer0$C$L0
 62
     3
 10
-166.8033325081
 20
57.0292786999
 40
10.7000000000
 50
348.2017575954
 51
356.7982424046
  0
ARC
  8
Layer0$C$L0
 62
     3
 10
-156.8421404487
 20
60.1316074630
 40
0.2958393990
 50
12.0408273384
 51
47.6430101086
  0
ARC
  8
Layer0$C$L0
 62
     3
 10
-156.8421404487
 20
53.9269499368
 40
0.2958393990
 50
312.3569898914
 51
347.9591726616
  0
ARC
  8
Layer0$C$L0
 62
     3
 10
-166.8033325081
 20
57.0292786999
 40
10.7000000000
 50
333.2017575954
 51
341.7982424046
  0
ARC
  8
Layer0$C$L0
 62
     3
 10
-157.5660300772
 20
52.1793302447
 40
0.2958410650
 50
327.0409309173
 51
362.6429068194
  0
ARC
  8
Layer0$C$L0
 62
     3
 10
-166.8033325081
 20
57.0292786999
 40
10.7000000000
 50
18.2017575954
 51
26.7982424046
  0
ARC
  8
Layer0$C$L0
 62
     3
 10
-157.5660300772
 20
61.8792271551
 40
0.2958410650
 50
357.3570931806
 51
392.9590690827
  0
ARC
  8
Layer0$C$L0
 62
     3
 10
-157.9845109437
 20
62.6040349800
 40
0.2958523140
 50
27.0415686213
 51
62.6421989952
  0
ARC
  8
Layer0$C$L0
 62
     3
 10
-157.9845109437
 20
51.4545224198
 40
0.2958523140
 50
297.3578010048
 51
332.9584313787
  0
ARC
  8
Layer0$C$L0
 62
     3
 10
-166.8033325081
 20
57.0292786999
 40
10.7000000000
 50
33.2017575954
 51
41.7982424046
  0
ARC
  8
Layer0$C$L0
 62
     3
 10
-159.1360442763
 20
64.1047565320
 40
0.2958435460
 50
12.3573969716
 51
47.9591641508
  0
ARC
  8
Layer0$C$L0
 62
     3
 10
-166.8033325081
 20
57.0292786999
 40
10.7000000000
 50
318.2017575954
 51
326.7982424046
  0
ARC
  8
Layer0$C$L0
 62
     3
 10
-159.1360442763
 20
49.9538008679
 40
0.2958435460
 50
312.0408358492
 51
347.6426030284
  0
ARC
  8
Layer0$C$L0
 62
     3
 10
-159.7278546760
 20
64.6965669316
 40
0.2958435460
 50
42.0408358492
 51
77.6426030284
  0
ARC
  8
Layer0$C$L0
 62
     3
 10
-159.7278546760
 20
49.3619904682
 40
0.2958435460
 50
282.3573969716
 51
317.9591641508
  0
ARC
  8
Layer0$C$L0
 62
     3
 10
-166.8033325081
 20
57.0292786999
 40
10.7000000000
 50
303.2017575954
 51
311.7982424046
  0
ARC
  8
Layer0$C$L0
 62
     3
 10
-161.2285762280
 20
48.2104571356
 40
0.2958523140
 50
297.0415686213
 51
332.6421989952
  0
ARC
  8
Layer0$C$L0
 62
     3
 10
-166.8033325081
 20
57.0292786999
 40
10.7000000000
 50
48.2017575954
 51
56.7982424046
  0
ARC
  8
Layer0$C$L0
 62
     3
 10
-161.2285762280
 20
65.8481002643
 40
0.2958523140
 50
27.3578010048
 51
62.9584313787
  0
ARC
  8
Layer0$C$L0
 62
     3
 10
-161.9533840529
 20
47.7919762691
 40
0.2958410650
 50
267.3570931806
 51
302.9590690827
  0
ARC
  8
Layer0$C$L0
 62
     3
 10
-166.8033325081
 20
57.0292786999
 40
10.7000000000
 50
288.2017575954
 51
296.7982424046
  0
ARC
  8
Layer0$C$L0
 62
     3
 10
-163.7010037450
 20
47.0680866405
 40
0.2958393990
 50
282.0408273384
 51
317.6430101086
  0
ARC
  8
Layer0$C$L0
 62
     3
 10
-166.8033325081
 20
57.0292786999
 40
10.7000000000
 50
63.2017575954
 51
71.7982424046
  0
ARC
  8
Layer0$C$L0
 62
     3
 10
-163.7010037450
 20
66.9904707593
 40
0.2958393990
 50
42.3569898914
 51
77.9591726616
  0
ARC
  8
Layer0$C$L0
 62
     3
 10
-161.9533840529
 20
66.2665811307
 40
0.2958410650
 50
57.0409309173
 51
92.6429068194
  0
ARC
  8
Layer0$C$L0
 62
     3
 10
-164.5094322135
 20
67.2070813997
 40
0.2958463074
 50
72.0412085281
 51
107.6425510838
  0
ARC
  8
Layer0$C$L0
 62
     3
 10
-164.5094322135
 20
46.8514760002
 40
0.2958463074
 50
252.3574489162
 51
287.9587914719
  0
ARC
  8
Layer0$C$L0
 62
     3
 10
-166.3848575289
 20
67.4539951201
 40
0.2958370804
 50
57.3570865983
 51
92.9595353103
  0
ARC
  8
Layer0$C$L0
 62
     3
 10
-166.8033325081
 20
57.0292786999
 40
10.7000000000
 50
273.2017575954
 51
281.7982424046
  0
ARC
  8
Layer0$C$L0
 62
     3
 10
-166.8033325081
 20
57.0292786999
 40
10.7000000000
 50
78.2017575954
 51
86.7982424046
  0
ARC
  8
Layer0$C$L0
 62
     3
 10
-166.3848575289
 20
46.6045622797
 40
0.2958370804
 50
267.0404646897
 51
302.6429134017
  0
ARC
  8
Layer0$C$L0
 62
     3
 10
-167.2218074872
 20
67.4539951201
 40
0.2958370804
 50
87.0404646897
 51
122.6429134017
  0
ARC
  8
Layer0$C$L0
 62
     3
 10
-167.2218074872
 20
46.6045622797
 40
0.2958370804
 50
237.3570865983
 51
272.9595353103
  0
ARC
  8
Layer0$C$L0
 62
     3
 10
-169.0972328026
 20
46.8514760002
 40
0.2958463074
 50
252.0412085281
 51
287.6425510838
  0
ARC
  8
Layer0$C$L0
 62
     3
 10
-169.0972328026
 20
67.2070813997
 40
0.2958463074
 50
72.3574489162
 51
107.9587914719
  0
ARC
  8
Layer0$C$L0
 62
     3
 10
-166.8033325081
 20
57.0292786999
 40
10.7000000000
 50
258.2017575954
 51
266.7982424046
  0
ARC
  8
Layer0$C$L0
 62
     3
 10
-166.8033325081
 20
57.0292786999
 40
10.7000000000
 50
93.2017575954
 51
101.7982424046
  0
ARC
  8
Layer0$C$L0
 62
     3
 10
-169.9056612712
 20
66.9904707593
 40
0.2958393990
 50
102.0408273384
 51
137.6430101086
  0
ARC
  8
Layer0$C$L0
 62
     3
 10
-169.9056612712
 20
47.0680866405
 40
0.2958393990
 50
222.3569898914
 51
257.9591726616
  0
ARC
  8
Layer0$C$L0
 62
     3
 10
-171.6532809633
 20
47.7919762691
 40
0.2958410650
 50
237.0409309173
 51
272.6429068194
  0
ARC
  8
Layer0$C$L0
 62
     3
 10
-166.8033325081
 20
57.0292786999
 40
10.7000000000
 50
243.2017575954
 51
251.7982424046
  0
ARC
  8
Layer0$C$L0
 62
     3
 10
-171.6532809633
 20
66.2665811307
 40
0.2958410650
 50
87.3570931806
 51
122.9590690827
  0
ARC
  8
Layer0$C$L0
 62
     3
 10
-166.8033325081
 20
57.0292786999
 40
10.7000000000
 50
108.2017575954
 51
116.7982424046
  0
ARC
  8
Layer0$C$L0
 62
     3
 10
-172.3780887882
 20
65.8481002643
 40
0.2958523140
 50
117.0415686213
 51
152.6421989952
  0
ARC
  8
Layer0$C$L0
 62
     3
 10
-172.3780887882
 20
48.2104571356
 40
0.2958523140
 50
207.3578010048
 51
242.9584313787
  0
ARC
  8
Layer0$C$L0
 62
     3
 10
-166.8033325081
 20
57.0292786999
 40
10.7000000000
 50
123.2017575954
 51
131.7982424046
  0
ARC
  8
Layer0$C$L0
 62
     3
 10
-166.8033325081
 20
57.0292786999
 40
10.7000000000
 50
228.2017575954
 51
236.7982424046
  0
ARC
  8
Layer0$C$L0
 62
     3
 10
-173.8788103401
 20
49.3619904682
 40
0.2958435460
 50
222.0408358492
 51
257.6426030284
  0
ARC
  8
Layer0$C$L0
 62
     3
 10
-173.8788103401
 20
64.6965669316
 40
0.2958435460
 50
102.3573969716
 51
137.9591641508
  0
ARC
  8
Layer0$C$L0
 62
     3
 10
-174.4706207398
 20
49.9538008679
 40
0.2958435460
 50
192.3573969716
 51
227.9591641508
  0
ARC
  8
Layer0$C$L0
 62
     3
 10
-174.4706207398
 20
64.1047565320
 40
0.2958435460
 50
132.0408358492
 51
167.6426030284
  0
ARC
  8
Layer0$C$L0
 62
     3
 10
-166.8033325081
 20
57.0292786999
 40
10.7000000000
 50
213.2017575954
 51
221.7982424046
  0
ARC
  8
Layer0$C$L0
 62
     3
 10
-166.8033325081
 20
57.0292786999
 40
10.7000000000
 50
138.2017575954
 51
146.7982424046
  0
ARC
  8
Layer0$C$L0
 62
     3
 10
-175.6221540724
 20
62.6040349800
 40
0.2958523140
 50
117.3578010048
 51
152.9584313787
  0
ARC
  8
Layer0$C$L0
 62
     3
 10
-175.6221540724
 20
51.4545224198
 40
0.2958523140
 50
207.0415686213
 51
242.6421989952
  0
ARC
  8
Layer0$C$L0
 62
     3
 10
-176.0406349389
 20
52.1793302447
 40
0.2958410650
 50
177.3570931806
 51
212.9590690827
  0
ARC
  8
Layer0$C$L0
 62
     3
 10
-166.8033325081
 20
57.0292786999
 40
10.7000000000
 50
153.2017575954
 51
161.7982424046
  0
ARC
  8
Layer0$C$L0
 62
     3
 10
-166.8033325081
 20
57.0292786999
 40
10.7000000000
 50
198.2017575954
 51
206.7982424046
  0
ARC
  8
Layer0$C$L0
 62
     3
 10
-176.7645245675
 20
60.1316074630
 40
0.2958393990
 50
132.3569898914
 51
167.9591726616
  0
ARC
  8
Layer0$C$L0
 62
     3
 10
-176.7645245675
 20
53.9269499368
 40
0.2958393990
 50
192.0408273384
 51
227.6430101086
  0
ARC
  8
Layer0$C$L0
 62
     3
 10
-176.9811352078
 20
59.3231789945
 40
0.2958463074
 50
162.0412085281
 51
197.6425510838
  0
ARC
  8
Layer0$C$L0
 62
     3
 10
-176.9811352078
 20
54.7353784054
 40
0.2958463074
 50
162.3574489162
 51
197.9587914719
  0
ARC
  8
Layer0$C$L0
 62
     3
 10
-166.8033325081
 20
57.0292786999
 40
10.7000000000
 50
183.2017575954
 51
191.7982424046
  0
ARC
  8
Layer0$C$L0
 62
     3
 10
-177.2280489283
 20
57.4477536791
 40
0.2958370804
 50
147.3570865983
 51
182.9595353103
  0
ARC
  8
Layer0$C$L0
 62
     3
 10
-177.2280489283
 20
56.6108037208
 40
0.2958370804
 50
177.0404646897
 51
212.6429134017
  0
ARC
  8
Layer0$C$L0
 62
     3
 10
-166.8033325081
 20
57.0292786999
 40
10.7000000000
 50
168.2017575954
 51
176.7982424046
  0
ARC
  8
Layer0$C$L0
 62
     3
 10
-176.0406349389
 20
61.8792271551
 40
0.2958410650
 50
147.0409309173
 51
182.6429068194
  0
ARC
  8
Layer0$C$L0
 62
     3
 10
-166.8033325081
 20
57.0292786999
 40
10.5277391109
 50
242.1952353389
 51
252.8047646611
  0
ARC
  8
Layer0$C$L0
 62
     3
 10
-166.8033325081
 20
57.0292786999
 40
10.7277391109
 50
252.8460381132
 51
257.1539618868
  0
ARC
  8
Layer0$C$L0
 62
     3
 10
-166.8033325081
 20
57.0292786999
 40
10.5277391109
 50
257.1952353389
 51
267.8047646611
  0
ARC
  8
Layer0$C$L0
 62
     3
 10
-166.8033325081
 20
57.0292786999
 40
10.7277391109
 50
267.8460381132
 51
272.1539618868
  0
ARC
  8
Layer0$C$L0
 62
     3
 10
-166.8033325081
 20
57.0292786999
 40
10.5277391109
 50
272.1952353389
 51
282.8047646611
  0
ARC
  8
Layer0$C$L0
 62
     3
 10
-166.8033325081
 20
57.0292786999
 40
10.7277391109
 50
282.8460381132
 51
287.1539618868
  0
ARC
  8
Layer0$C$L0
 62
     3
 10
-166.8033325081
 20
57.0292786999
 40
10.5277391109
 50
287.1952353389
 51
297.8047646611
  0
ARC
  8
Layer0$C$L0
 62
     3
 10
-166.8033325081
 20
57.0292786999
 40
10.7277391109
 50
297.8460381132
 51
302.1539618868
  0
ARC
  8
Layer0$C$L0
 62
     3
 10
-166.8033325081
 20
57.0292786999
 40
10.5277391109
 50
302.1952353389
 51
312.8047646611
  0
ARC
  8
Layer0$C$L0
 62
     3
 10
-166.8033325081
 20
57.0292786999
 40
10.7277391109
 50
312.8460381132
 51
317.1539618868
  0
ARC
  8
Layer0$C$L0
 62
     3
 10
-166.8033325081
 20
57.0292786999
 40
10.5277391109
 50
317.1952353389
 51
327.8047646611
  0
ARC
  8
Layer0$C$L0
 62
     3
 10
-166.8033325081
 20
57.0292786999
 40
10.7277391109
 50
327.8460381132
 51
332.1539618868
  0
ARC
  8
Layer0$C$L0
 62
     3
 10
-166.8033325081
 20
57.0292786999
 40
10.5277391109
 50
332.1952353389
 51
342.8047646611
  0
ARC
  8
Layer0$C$L0
 62
     3
 10
-166.8033325081
 20
57.0292786999
 40
10.7277391109
 50
342.8460381132
 51
347.1539618868
  0
ARC
  8
Layer0$C$L0
 62
     3
 10
-166.8033325081
 20
57.0292786999
 40
10.5277391109
 50
347.1952353389
 51
357.8047646611
  0
ARC
  8
Layer0$C$L0
 62
     3
 10
-166.8033325081
 20
57.0292786999
 40
10.7277391109
 50
357.8460381132
 51
362.1539618868
  0
ARC
  8
Layer0$C$L0
 62
     3
 10
-166.8033325081
 20
57.0292786999
 40
10.5277391109
 50
2.1952353389
 51
12.8047646611
  0
ARC
  8
Layer0$C$L0
 62
     3
 10
-166.8033325081
 20
57.0292786999
 40
10.7277391109
 50
12.8460381132
 51
17.1539618868
  0
ARC
  8
Layer0$C$L0
 62
     3
 10
-166.8033325081
 20
57.0292786999
 40
10.5277391109
 50
17.1952353389
 51
27.8047646611
  0
ARC
  8
Layer0$C$L0
 62
     3
 10
-166.8033325081
 20
57.0292786999
 40
10.7277391109
 50
27.8460381132
 51
32.1539618868
  0
ARC
  8
Layer0$C$L0
 62
     3
 10
-166.8033325081
 20
57.0292786999
 40
10.5277391109
 50
32.1952353389
 51
42.8047646611
  0
ARC
  8
Layer0$C$L0
 62
     3
 10
-166.8033325081
 20
57.0292786999
 40
10.7277391109
 50
42.8460381132
 51
47.1539618868
  0
ARC
  8
Layer0$C$L0
 62
     3
 10
-166.8033325081
 20
57.0292786999
 40
10.5277391109
 50
47.1952353389
 51
57.8047646611
  0
ARC
  8
Layer0$C$L0
 62
     3
 10
-166.8033325081
 20
57.0292786999
 40
10.7277391109
 50
57.8460381132
 51
62.1539618868
  0
ARC
  8
Layer0$C$L0
 62
     3
 10
-166.8033325081
 20
57.0292786999
 40
10.5277391109
 50
62.1952353389
 51
72.8047646611
  0
ARC
  8
Layer0$C$L0
 62
     3
 10
-166.8033325081
 20
57.0292786999
 40
10.7277391109
 50
72.8460381132
 51
77.1539618868
  0
ARC
  8
Layer0$C$L0
 62
     3
 10
-166.8033325081
 20
57.0292786999
 40
10.5277391109
 50
77.1952353389
 51
87.8047646611
  0
ARC
  8
Layer0$C$L0
 62
     3
 10
-166.8033325081
 20
57.0292786999
 40
10.7277391109
 50
87.8460381132
 51
92.1539618868
  0
ARC
  8
Layer0$C$L0
 62
     3
 10
-166.8033325081
 20
57.0292786999
 40
10.5277391109
 50
92.1952353389
 51
102.8047646611
  0
ARC
  8
Layer0$C$L0
 62
     3
 10
-166.8033325081
 20
57.0292786999
 40
10.7277391109
 50
102.8460381132
 51
107.1539618868
  0
ARC
  8
Layer0$C$L0
 62
     3
 10
-166.8033325081
 20
57.0292786999
 40
10.5277391109
 50
107.1952353389
 51
117.8047646611
  0
ARC
  8
Layer0$C$L0
 62
     3
 10
-166.8033325081
 20
57.0292786999
 40
10.7277391109
 50
117.8460381132
 51
122.1539618868
  0
ARC
  8
Layer0$C$L0
 62
     3
 10
-166.8033325081
 20
57.0292786999
 40
10.5277391109
 50
122.1952353389
 51
132.8047646611
  0
ARC
  8
Layer0$C$L0
 62
     3
 10
-166.8033325081
 20
57.0292786999
 40
10.7277391109
 50
132.8460381132
 51
137.1539618868
  0
ARC
  8
Layer0$C$L0
 62
     3
 10
-166.8033325081
 20
57.0292786999
 40
10.5277391109
 50
137.1952353389
 51
147.8047646611
  0
ARC
  8
Layer0$C$L0
 62
     3
 10
-166.8033325081
 20
57.0292786999
 40
10.7277391109
 50
147.8460381132
 51
152.1539618868
  0
ARC
  8
Layer0$C$L0
 62
     3
 10
-166.8033325081
 20
57.0292786999
 40
10.5277391109
 50
152.1952353389
 51
162.8047646611
  0
ARC
  8
Layer0$C$L0
 62
     3
 10
-166.8033325081
 20
57.0292786999
 40
10.7277391109
 50
162.8460381132
 51
167.1539618868
  0
ARC
  8
Layer0$C$L0
 62
     3
 10
-166.8033325081
 20
57.0292786999
 40
10.5277391109
 50
167.1952353389
 51
177.8047646611
  0
ARC
  8
Layer0$C$L0
 62
     3
 10
-166.8033325081
 20
57.0292786999
 40
10.7277391109
 50
177.8460381132
 51
182.1539618868
  0
ARC
  8
Layer0$C$L0
 62
     3
 10
-166.8033325081
 20
57.0292786999
 40
10.5277391109
 50
182.1952353389
 51
192.8047646611
  0
ARC
  8
Layer0$C$L0
 62
     3
 10
-166.8033325081
 20
57.0292786999
 40
10.7277391109
 50
192.8460381132
 51
197.1539618868
  0
ARC
  8
Layer0$C$L0
 62
     3
 10
-166.8033325081
 20
57.0292786999
 40
10.5277391109
 50
197.1952353389
 51
207.8047646611
  0
ARC
  8
Layer0$C$L0
 62
     3
 10
-166.8033325081
 20
57.0292786999
 40
10.7277391109
 50
207.8460381132
 51
212.1539618868
  0
ARC
  8
Layer0$C$L0
 62
     3
 10
-166.8033325081
 20
57.0292786999
 40
10.5277391109
 50
212.1952353389
 51
222.8047646611
  0
ARC
  8
Layer0$C$L0
 62
     3
 10
-166.8033325081
 20
57.0292786999
 40
10.7277391109
 50
222.8460381132
 51
227.1539618868
  0
ARC
  8
Layer0$C$L0
 62
     3
 10
-166.8033325081
 20
57.0292786999
 40
10.5277391109
 50
227.1952353389
 51
237.8047646611
  0
ARC
  8
Layer0$C$L0
 62
     3
 10
-166.8033325081
 20
57.0292786999
 40
10.7277391109
 50
237.8460381132
 51
242.1539618868
  0
CIRCLE
  8
Layer0$C$L0
 62
     3
 10
-166.8033325081
 20
57.0292786999
 40
9.2000000000
  0
CIRCLE
  8
Layer0$C$L0
 62
     3
 10
-166.8033325081
 20
57.0292786999
 40
8.0000000000
  0
LINE
  8
Layer0$C$L0
 62
     3
 10
-158.1062064473
 20
60.0292787260
 11
-159.3871340123
 21
60.0292787260
  0
LINE
  8
Layer0$C$L0
 62
     3
 10
-163.8033324820
 20
64.4454771957
 11
-163.8033324820
 21
65.7264047607
  0
LINE
  8
Layer0$C$L0
 62
     3
 10
-163.8033324820
 20
48.3321526392
 11
-163.8033324820
 21
49.6130802042
  0
LINE
  8
Layer0$C$L0
 62
     3
 10
-159.3871340123
 20
54.0292786739
 11
-158.1062064473
 21
54.0292786739
  0
LINE
  8
Layer0$C$L0
 62
     3
 10
-175.5004585688
 20
54.0292786739
 11
-174.2195310038
 21
54.0292786739
  0
LINE
  8
Layer0$C$L0
 62
     3
 10
-169.8033325341
 20
49.6130802042
 11
-169.8033325341
 21
48.3321526392
  0
LINE
  8
Layer0$C$L0
 62
     3
 10
-169.8033325341
 20
65.7264047607
 11
-169.8033325341
 21
64.4454771957
  0
LINE
  8
Layer0$C$L0
 62
     3
 10
-174.2195310038
 20
60.0292787260
 11
-175.5004585688
 21
60.0292787260
  0
LINE
  8
Layer0$C$L0
 62
     3
 10
-161.2245780383
 20
53.2292786359
 11
-161.7033323240
 21
53.2292786359
  0
LINE
  8
Layer0$C$L0
 62
     3
 10
-161.7033323240
 20
60.8292787640
 11
-161.2245780383
 21
60.8292787640
  0
LINE
  8
Layer0$C$L0
 62
     3
 10
-167.7033324926
 20
63.5676269724
 11
-167.7033324926
 21
63.5171520828
  0
LINE
  8
Layer0$C$L0
 62
     3
 10
-165.9033325235
 20
63.5171520828
 11
-165.9033325235
 21
63.5676269724
  0
LINE
  8
Layer0$C$L0
 62
     3
 10
-165.9033325235
 20
50.4909304275
 11
-165.9033325235
 21
50.5414053171
  0
LINE
  8
Layer0$C$L0
 62
     3
 10
-167.7033324926
 20
50.5414053171
 11
-167.7033324926
 21
50.4909304275
  0
ARC
  8
Layer0$C$L0
 62
     3
 10
-166.8033325081
 20
57.0292786999
 40
6.5500000000
 50
147.1078901345
 51
212.8921098655
  0
LINE
  8
Layer0$C$L0
 62
     3
 10
-163.4426638451
 20
55.3724587501
 11
-163.1856716671
 21
55.3724587501
  0
LINE
  8
Layer0$C$L0
 62
     3
 10
-163.4426638451
 20
53.2557922254
 11
-163.4426638451
 21
55.3724587501
  0
LINE
  8
Layer0$C$L0
 62
     3
 10
-163.3123580799
 20
53.2557922254
 11
-163.4426638451
 21
53.2557922254
  0
LINE
  8
Layer0$C$L0
 62
     3
 10
-162.8671460752
 20
53.6881342835
 11
-162.8671460752
 21
53.5598392437
  0
LINE
  8
Layer0$C$L0
 62
     3
 10
-163.1856716671
 20
53.6881342835
 11
-162.8671460752
 21
53.6881342835
  0
LINE
  8
Layer0$C$L0
 62
     3
 10
-163.1856716671
 20
55.3724587501
 11
-163.1856716671
 21
53.6881342835
  0
LINE
  8
Layer0$C$L0
 62
     3
 10
-163.8559566312
 20
58.8965687041
 11
-163.0089683426
 21
58.8965687041
  0
LINE
  8
Layer0$C$L0
 62
     3
 10
-163.8342391201
 20
60.1127571265
 11
-164.0731331394
 21
60.1127571265
  0
LINE
  8
Layer0$C$L0
 62
     3
 10
-164.1165686273
 20
58.6910553814
 11
-164.1165686273
 21
58.8639922046
  0
LINE
  8
Layer0$C$L0
 62
     3
 10
-163.0089683426
 20
58.6910553814
 11
-164.1165686273
 21
58.6910553814
  0
LINE
  8
Layer0$C$L0
 62
     3
 10
-163.0089683426
 20
58.8965687041
 11
-163.0089683426
 21
58.6910553814
  0
LINE
  8
Layer0$C$L0
 62
     3
 10
-169.3033324522
 20
54.4292786929
 11
-169.3033324522
 21
54.2292787998
  0
LINE
  8
Layer0$C$L0
 62
     3
 10
-167.5033324831
 20
55.1813246987
 11
-168.2394923377
 21
55.4292787404
  0
LINE
  8
Layer0$C$L0
 62
     3
 10
-168.2394923377
 20
55.4292787404
 11
-168.3033325211
 21
55.2397413251
  0
LINE
  8
Layer0$C$L0
 62
     3
 10
-168.3033325211
 20
55.2397413251
 11
-167.5033324831
 21
54.9702846749
  0
LINE
  8
Layer0$C$L0
 62
     3
 10
-167.5033324831
 20
54.9702846749
 11
-167.5033324831
 21
54.4292786929
  0
LINE
  8
Layer0$C$L0
 62
     3
 10
-167.5033324831
 20
54.4292786929
 11
-169.3033324522
 21
54.4292786929
  0
LINE
  8
Layer0$C$L0
 62
     3
 10
-169.3033324522
 20
54.2292787998
 11
-167.3033325318
 21
54.2292787998
  0
LINE
  8
Layer0$C$L0
 62
     3
 10
-167.3033325318
 20
54.2292787998
 11
-167.3033325318
 21
54.9029204833
  0
LINE
  8
Layer0$C$L0
 62
     3
 10
-167.3033325318
 20
54.9029204833
 11
-165.3033324950
 21
54.2292787998
  0
LINE
  8
Layer0$C$L0
 62
     3
 10
-165.3033324950
 20
54.2292787998
 11
-163.8033324820
 21
54.2292787998
  0
LINE
  8
Layer0$C$L0
 62
     3
 10
-163.8033324820
 20
54.2292787998
 11
-163.8033324820
 21
54.4292786929
  0
LINE
  8
Layer0$C$L0
 62
     3
 10
-163.8033324820
 20
54.4292786929
 11
-165.2705550627
 21
54.4292786929
  0
LINE
  8
Layer0$C$L0
 62
     3
 10
-165.2705550627
 20
54.4292786929
 11
-167.3033325318
 21
55.1139605070
  0
LINE
  8
Layer0$C$L0
 62
     3
 10
-167.3033325318
 20
55.1139605070
 11
-167.3033325318
 21
55.4292787404
  0
LINE
  8
Layer0$C$L0
 62
     3
 10
-167.3033325318
 20
55.4292787404
 11
-167.5033324831
 21
55.4292787404
  0
LINE
  8
Layer0$C$L0
 62
     3
 10
-167.5033324831
 20
55.4292787404
 11
-167.5033324831
 21
55.1813246987
  0
LINE
  8
Layer0$C$L0
 62
     3
 10
-166.1033325330
 20
58.8772327012
 11
-165.3671726785
 21
58.6292786595
  0
LINE
  8
Layer0$C$L0
 62
     3
 10
-165.3671726785
 20
58.6292786595
 11
-165.3033324950
 21
58.8188160748
  0
LINE
  8
Layer0$C$L0
 62
     3
 10
-165.3033324950
 20
58.8188160748
 11
-166.1033325330
 21
59.0882727249
  0
LINE
  8
Layer0$C$L0
 62
     3
 10
-166.1033325330
 20
59.0882727249
 11
-166.1033325330
 21
59.6292787070
  0
LINE
  8
Layer0$C$L0
 62
     3
 10
-166.1033325330
 20
59.6292787070
 11
-164.3033325639
 21
59.6292787070
  0
LINE
  8
Layer0$C$L0
 62
     3
 10
-164.3033325639
 20
59.6292787070
 11
-164.3033325639
 21
59.8292786001
  0
LINE
  8
Layer0$C$L0
 62
     3
 10
-164.3033325639
 20
59.8292786001
 11
-166.3033324843
 21
59.8292786001
  0
LINE
  8
Layer0$C$L0
 62
     3
 10
-166.3033324843
 20
59.8292786001
 11
-166.3033324843
 21
59.1556369166
  0
LINE
  8
Layer0$C$L0
 62
     3
 10
-166.3033324843
 20
59.1556369166
 11
-168.3033325211
 21
59.8292786001
  0
LINE
  8
Layer0$C$L0
 62
     3
 10
-168.3033325211
 20
59.8292786001
 11
-169.8033325341
 21
59.8292786001
  0
LINE
  8
Layer0$C$L0
 62
     3
 10
-169.8033325341
 20
59.8292786001
 11
-169.8033325341
 21
59.6292787070
  0
LINE
  8
Layer0$C$L0
 62
     3
 10
-169.8033325341
 20
59.6292787070
 11
-168.3361099535
 21
59.6292787070
  0
LINE
  8
Layer0$C$L0
 62
     3
 10
-168.3361099535
 20
59.6292787070
 11
-166.3033324843
 21
58.9445968928
  0
LINE
  8
Layer0$C$L0
 62
     3
 10
-166.3033324843
 20
58.9445968928
 11
-166.3033324843
 21
58.6292786595
  0
LINE
  8
Layer0$C$L0
 62
     3
 10
-166.3033324843
 20
58.6292786595
 11
-166.1033325330
 21
58.6292786595
  0
LINE
  8
Layer0$C$L0
 62
     3
 10
-166.1033325330
 20
58.6292786595
 11
-166.1033325330
 21
58.8772327012
  0
LINE
  8
Layer0$C$L0
 62
     3
 10
-170.5976966736
 20
55.3675020185
 11
-169.4900963888
 21
55.3675020185
  0
LINE
  8
Layer0$C$L0
 62
     3
 10
-170.5976966736
 20
55.1619886958
 11
-170.5976966736
 21
55.3675020185
  0
LINE
  8
Layer0$C$L0
 62
     3
 10
-169.7507083849
 20
55.1619886958
 11
-170.5976966736
 21
55.1619886958
  0
LINE
  8
Layer0$C$L0
 62
     3
 10
-169.7724258960
 20
53.9458002734
 11
-169.5335318767
 21
53.9458002734
  0
LINE
  8
Layer0$C$L0
 62
     3
 10
-169.4900963888
 20
55.3675020185
 11
-169.4900963888
 21
55.1945651953
  0
LINE
  8
Layer0$C$L0
 62
     3
 10
-170.7395189409
 20
60.3704231164
 11
-170.7395189409
 21
60.4987181562
  0
LINE
  8
Layer0$C$L0
 62
     3
 10
-170.4209933490
 20
60.3704231164
 11
-170.7395189409
 21
60.3704231164
  0
LINE
  8
Layer0$C$L0
 62
     3
 10
-170.1640011710
 20
58.6860986498
 11
-170.4209933490
 21
58.6860986498
  0
LINE
  8
Layer0$C$L0
 62
     3
 10
-170.1640011710
 20
60.8027651745
 11
-170.1640011710
 21
58.6860986498
  0
LINE
  8
Layer0$C$L0
 62
     3
 10
-170.2943069362
 20
60.8027651745
 11
-170.1640011710
 21
60.8027651745
  0
LINE
  8
Layer0$C$L0
 62
     3
 10
-170.4209933490
 20
58.6860986498
 11
-170.4209933490
 21
60.3704231164
  0
LINE
  8
Layer0$C$L0
 62
     3
 10
-160.0718763624
 20
57.5292787237
 11
-173.3342208867
 21
57.5292787237
  0
LINE
  8
Layer0$C$L0
 62
     3
 10
-170.9033325282
 20
58.5292787130
 11
-162.7033324879
 21
58.5292787130
  0
LINE
  8
Layer0$C$L0
 62
     3
 10
-170.9033325282
 20
61.0292788899
 11
-170.9033325282
 21
58.5292787130
  0
LINE
  8
Layer0$C$L0
 62
     3
 10
-162.7033324879
 20
61.0292788899
 11
-170.9033325282
 21
61.0292788899
  0
LINE
  8
Layer0$C$L0
 62
     3
 10
-162.7033324879
 20
58.5292787130
 11
-162.7033324879
 21
61.0292788899
  0
LINE
  8
Layer0$C$L0
 62
     3
 10
-161.5533325788
 20
60.8292787640
 11
-161.7033323240
 21
60.6792787860
  0
LINE
  8
Layer0$C$L0
 62
     3
 10
-161.7033323240
 20
58.2792786720
 11
-161.7033323240
 21
61.1292787200
  0
LINE
  8
Layer0$C$L0
 62
     3
 10
-162.2033324060
 20
58.2792786720
 11
-161.7033323240
 21
58.2792786720
  0
LINE
  8
Layer0$C$L0
 62
     3
 10
-162.2033324060
 20
61.7621426775
 11
-162.2033324060
 21
58.2792786720
  0
LINE
  8
Layer0$C$L0
 62
     3
 10
-162.2033324060
 20
61.4921639046
 11
-162.3428612915
 21
61.8258083543
  0
ARC
  8
Layer0$C$L0
 62
     3
 10
-166.8033325081
 20
57.0292786999
 40
6.5500000000
 50
47.0791032793
 51
133.3949052352
  0
LINE
  8
Layer0$C$L0
 62
     3
 10
-171.3033323144
 20
61.4292786761
 11
-171.4033326101
 21
61.3292788460
  0
LINE
  8
Layer0$C$L0
 62
     3
 10
-171.4033326101
 20
58.0292787474
 11
-171.4033326101
 21
61.4292786761
  0
LINE
  8
Layer0$C$L0
 62
     3
 10
-171.9033326921
 20
58.0292787474
 11
-171.4033326101
 21
58.0292787474
  0
LINE
  8
Layer0$C$L0
 62
     3
 10
-171.9033326921
 20
61.1292787200
 11
-172.1033323523
 21
61.3292788460
  0
LINE
  8
Layer0$C$L0
 62
     3
 10
-172.1033323523
 20
61.3292788460
 11
-172.1533327331
 21
61.3292788460
  0
ARC
  8
Layer0$C$L0
 62
     3
 10
-172.1533325081
 20
61.1792786999
 40
0.1500000000
 50
90.0000000000
 51
180.0000000000
  0
LINE
  8
Layer0$C$L0
 62
     3
 10
-172.3033324783
 20
61.1792786351
 11
-172.3033324783
 21
60.5863139338
  0
ARC
  8
Layer0$C$L0
 62
     3
 10
-166.8033325081
 20
57.0292786999
 40
6.7500000000
 50
325.7390449363
 51
394.2609550637
  0
LINE
  8
Layer0$C$L0
 62
     3
 10
-162.7033324879
 20
53.0292785099
 11
-162.7033324879
 21
55.5292786869
  0
LINE
  8
Layer0$C$L0
 62
     3
 10
-170.9033325282
 20
53.0292785099
 11
-162.7033324879
 21
53.0292785099
  0
LINE
  8
Layer0$C$L0
 62
     3
 10
-170.9033325282
 20
55.5292786869
 11
-170.9033325282
 21
53.0292785099
  0
LINE
  8
Layer0$C$L0
 62
     3
 10
-162.7033324879
 20
55.5292786869
 11
-170.9033325282
 21
55.5292786869
  0
LINE
  8
Layer0$C$L0
 62
     3
 10
-161.7033323240
 20
52.9292786798
 11
-161.7033323240
 21
55.7792787279
  0
LINE
  8
Layer0$C$L0
 62
     3
 10
-161.7033323240
 20
53.3792786139
 11
-161.5533325788
 21
53.2292786359
  0
LINE
  8
Layer0$C$L0
 62
     3
 10
-173.3342208867
 20
56.5292786762
 11
-160.0718763624
 21
56.5292786762
  0
LINE
  8
Layer0$C$L0
 62
     3
 10
-172.3033324783
 20
53.4722434661
 11
-172.3033324783
 21
52.8792787648
  0
ARC
  8
Layer0$C$L0
 62
     3
 10
-172.1533325081
 20
52.8792786999
 40
0.1500000000
 50
180.0000000000
 51
270.0000000000
  0
LINE
  8
Layer0$C$L0
 62
     3
 10
-172.1533327331
 20
52.7292785539
 11
-172.1033323523
 21
52.7292785539
  0
LINE
  8
Layer0$C$L0
 62
     3
 10
-172.1033323523
 20
52.7292785539
 11
-171.9033326921
 21
52.9292786798
  0
LINE
  8
Layer0$C$L0
 62
     3
 10
-171.4033326101
 20
56.0292786524
 11
-171.9033326921
 21
56.0292786524
  0
LINE
  8
Layer0$C$L0
 62
     3
 10
-171.4033326101
 20
52.6292787238
 11
-171.4033326101
 21
56.0292786524
  0
LINE
  8
Layer0$C$L0
 62
     3
 10
-171.4033326101
 20
52.7292785539
 11
-171.3033323144
 21
52.6292787238
  0
ARC
  8
Layer0$C$L0
 62
     3
 10
-166.8033325081
 20
57.0292786999
 40
6.5500000000
 50
226.6050947648
 51
312.9208967207
  0
LINE
  8
Layer0$C$L0
 62
     3
 10
-162.3428612915
 20
52.2327490455
 11
-162.2033324060
 21
52.5663934952
  0
LINE
  8
Layer0$C$L0
 62
     3
 10
-162.2033324060
 20
55.7792787279
 11
-162.2033324060
 21
52.2964147224
  0
LINE
  8
Layer0$C$L0
 62
     3
 10
-161.7033323240
 20
55.7792787279
 11
-162.2033324060
 21
55.7792787279
  0
LINE
  8
Layer0$C$L0
 62
     3
 10
-161.7033323240
 20
58.3292787035
 11
-162.2033324060
 21
58.3292787035
  0
POLYLINE
  8
Layer0$C$L0
 62
     3
 66
     1
  0
VERTEX
  8
Layer0$C$L0
 62
     3
 10
-161.7033325081
 20
61.1292786999
  0
VERTEX
  8
Layer0$C$L0
 62
     3
 10
-161.7478875194
 20
60.9253690528
  0
VERTEX
  8
Layer0$C$L0
 62
     3
 10
-161.7851723898
 20
60.7056688279
  0
VERTEX
  8
Layer0$C$L0
 62
     3
 10
-161.8146948910
 20
60.4730784698
  0
VERTEX
  8
Layer0$C$L0
 62
     3
 10
-161.8360652718
 20
60.2306685959
  0
VERTEX
  8
Layer0$C$L0
 62
     3
 10
-161.8490014044
 20
59.9816394594
  0
VERTEX
  8
Layer0$C$L0
 62
     3
 10
-161.8533325081
 20
59.7292786999
  0
VERTEX
  8
Layer0$C$L0
 62
     3
 10
-161.8490014044
 20
59.4769179404
  0
VERTEX
  8
Layer0$C$L0
 62
     3
 10
-161.8360652718
 20
59.2278888039
  0
VERTEX
  8
Layer0$C$L0
 62
     3
 10
-161.8146948910
 20
58.9854789300
  0
VERTEX
  8
Layer0$C$L0
 62
     3
 10
-161.7851723898
 20
58.7528885719
  0
VERTEX
  8
Layer0$C$L0
 62
     3
 10
-161.7478875194
 20
58.5331883470
  0
VERTEX
  8
Layer0$C$L0
 62
     3
 10
-161.7033325081
 20
58.3292786999
  0
SEQEND
  8
Layer0$C$L0
 62
     3
  0
POLYLINE
  8
Layer0$C$L0
 62
     3
 66
     1
  0
VERTEX
  8
Layer0$C$L0
 62
     3
 10
-162.2033325079
 20
58.3292786999
  0
VERTEX
  8
Layer0$C$L0
 62
     3
 10
-162.1587774966
 20
58.5331883470
  0
VERTEX
  8
Layer0$C$L0
 62
     3
 10
-162.1214926262
 20
58.7528885719
  0
VERTEX
  8
Layer0$C$L0
 62
     3
 10
-162.0919701251
 20
58.9854789300
  0
VERTEX
  8
Layer0$C$L0
 62
     3
 10
-162.0705997442
 20
59.2278888039
  0
VERTEX
  8
Layer0$C$L0
 62
     3
 10
-162.0576636116
 20
59.4769179404
  0
VERTEX
  8
Layer0$C$L0
 62
     3
 10
-162.0533325079
 20
59.7292786999
  0
VERTEX
  8
Layer0$C$L0
 62
     3
 10
-162.0576636116
 20
59.9816394594
  0
VERTEX
  8
Layer0$C$L0
 62
     3
 10
-162.0705997442
 20
60.2306685959
  0
VERTEX
  8
Layer0$C$L0
 62
     3
 10
-162.0919701251
 20
60.4730784698
  0
VERTEX
  8
Layer0$C$L0
 62
     3
 10
-162.1214926262
 20
60.7056688279
  0
VERTEX
  8
Layer0$C$L0
 62
     3
 10
-162.1587774966
 20
60.9253690528
  0
VERTEX
  8
Layer0$C$L0
 62
     3
 10
-162.2033325079
 20
61.1292786999
  0
SEQEND
  8
Layer0$C$L0
 62
     3
  0
POLYLINE
  8
Layer0$C$L0
 62
     3
 66
     1
  0
VERTEX
  8
Layer0$C$L0
 62
     3
 10
-161.7033325081
 20
55.7292786999
  0
VERTEX
  8
Layer0$C$L0
 62
     3
 10
-161.7478875194
 20
55.5253690528
  0
VERTEX
  8
Layer0$C$L0
 62
     3
 10
-161.7851723898
 20
55.3056688279
  0
VERTEX
  8
Layer0$C$L0
 62
     3
 10
-161.8146948910
 20
55.0730784698
  0
VERTEX
  8
Layer0$C$L0
 62
     3
 10
-161.8360652718
 20
54.8306685959
  0
VERTEX
  8
Layer0$C$L0
 62
     3
 10
-161.8490014044
 20
54.5816394594
  0
VERTEX
  8
Layer0$C$L0
 62
     3
 10
-161.8533325081
 20
54.3292786999
  0
VERTEX
  8
Layer0$C$L0
 62
     3
 10
-161.8490014044
 20
54.0769179404
  0
VERTEX
  8
Layer0$C$L0
 62
     3
 10
-161.8360652718
 20
53.8278888039
  0
VERTEX
  8
Layer0$C$L0
 62
     3
 10
-161.8146948910
 20
53.5854789300
  0
VERTEX
  8
Layer0$C$L0
 62
     3
 10
-161.7851723898
 20
53.3528885719
  0
VERTEX
  8
Layer0$C$L0
 62
     3
 10
-161.7478875194
 20
53.1331883470
  0
VERTEX
  8
Layer0$C$L0
 62
     3
 10
-161.7033325081
 20
52.9292786999
  0
SEQEND
  8
Layer0$C$L0
 62
     3
  0
LINE
  8
Layer0$C$L0
 62
     3
 10
-161.7033323240
 20
55.7292786964
 11
-162.2033324060
 21
55.7292786964
  0
POLYLINE
  8
Layer0$C$L0
 62
     3
 66
     1
  0
VERTEX
  8
Layer0$C$L0
 62
     3
 10
-162.2033325079
 20
52.9292786999
  0
VERTEX
  8
Layer0$C$L0
 62
     3
 10
-162.1587774966
 20
53.1331883470
  0
VERTEX
  8
Layer0$C$L0
 62
     3
 10
-162.1214926262
 20
53.3528885719
  0
VERTEX
  8
Layer0$C$L0
 62
     3
 10
-162.0919701251
 20
53.5854789300
  0
VERTEX
  8
Layer0$C$L0
 62
     3
 10
-162.0705997442
 20
53.8278888039
  0
VERTEX
  8
Layer0$C$L0
 62
     3
 10
-162.0576636116
 20
54.0769179404
  0
VERTEX
  8
Layer0$C$L0
 62
     3
 10
-162.0533325079
 20
54.3292786999
  0
VERTEX
  8
Layer0$C$L0
 62
     3
 10
-162.0576636116
 20
54.5816394594
  0
VERTEX
  8
Layer0$C$L0
 62
     3
 10
-162.0705997442
 20
54.8306685959
  0
VERTEX
  8
Layer0$C$L0
 62
     3
 10
-162.0919701251
 20
55.0730784698
  0
VERTEX
  8
Layer0$C$L0
 62
     3
 10
-162.1214926262
 20
55.3056688279
  0
VERTEX
  8
Layer0$C$L0
 62
     3
 10
-162.1587774966
 20
55.5253690528
  0
VERTEX
  8
Layer0$C$L0
 62
     3
 10
-162.2033325079
 20
55.7292786999
  0
SEQEND
  8
Layer0$C$L0
 62
     3
  0
LINE
  8
Layer0$C$L0
 62
     3
 10
-171.7933323202
 20
55.8292786429
 11
-171.5233325926
 21
55.8292786429
  0
LINE
  8
Layer0$C$L0
 62
     3
 10
-171.7840279420
 20
55.2292787309
 11
-171.5233325926
 21
55.2292787309
  0
LINE
  8
Layer0$C$L0
 62
     3
 10
-171.7933323202
 20
52.8292788497
 11
-171.5233325926
 21
52.8292788497
  0
LINE
  8
Layer0$C$L0
 62
     3
 10
-171.7840279420
 20
53.4292787618
 11
-171.5233325926
 21
53.4292787618
  0
LINE
  8
Layer0$C$L0
 62
     3
 10
-171.7724893209
 20
54.9292787748
 11
-171.6233324227
 21
54.9292787748
  0
LINE
  8
Layer0$C$L0
 62
     3
 10
-171.6233324227
 20
53.7292787178
 11
-171.7724893209
 21
53.7292787178
  0
ARC
  8
Layer0$C$L0
 62
     3
 10
-171.8033325081
 20
54.8292786999
 40
0.1000000000
 50
132.9982440792
 51
180.0000000000
  0
ARC
  8
Layer0$C$L0
 62
     3
 10
-171.8033325081
 20
53.8292786999
 40
0.1000000000
 50
180.0000000000
 51
227.0017559208
  0
ARC
  8
Layer0$C$L0
 62
     3
 10
-171.6233325081
 20
55.0292786999
 40
0.1000000000
 50
270.0000000000
 51
360.0000000000
  0
ARC
  8
Layer0$C$L0
 62
     3
 10
-171.6233325081
 20
53.6292786999
 40
0.1000000000
 50
0.0000000000
 51
90.0000000000
  0
LINE
  8
Layer0$C$L0
 62
     3
 10
-171.6233324227
 20
53.7292787178
 11
-171.6233324227
 21
54.9292787748
  0
LINE
  8
Layer0$C$L0
 62
     3
 10
-171.5233325926
 20
55.7125817124
 11
-171.5233325926
 21
56.0292786524
  0
LINE
  8
Layer0$C$L0
 62
     3
 10
-171.5233325926
 20
52.6292787238
 11
-171.5233325926
 21
52.9459758966
  0
ARC
  8
Layer0$C$L0
 62
     3
 10
-171.6033325081
 20
55.5292786999
 40
0.2000000000
 50
30.0000000000
 51
90.0000000000
  0
LINE
  8
Layer0$C$L0
 62
     3
 10
-171.4301272263
 20
55.6292787499
 11
-171.6954922271
 21
55.6292787499
  0
LINE
  8
Layer0$C$L0
 62
     3
 10
-171.6954922271
 20
55.7292786964
 11
-171.6033327361
 21
55.7292786964
  0
ARC
  8
Layer0$C$L0
 62
     3
 10
-171.6954923260
 20
55.5292786999
 40
0.2000000000
 50
90.0000000000
 51
182.2025981618
  0
LINE
  8
Layer0$C$L0
 62
     3
 10
-171.8533323114
 20
54.4292786929
 11
-171.8953447384
 21
55.5215921324
  0
LINE
  8
Layer0$C$L0
 62
     3
 10
-171.7534065214
 20
54.4331220283
 11
-171.8533323114
 21
54.4292786929
  0
LINE
  8
Layer0$C$L0
 62
     3
 10
-171.7954184827
 20
55.5254353515
 11
-171.7534065214
 21
54.4331220283
  0
ARC
  8
Layer0$C$L0
 62
     3
 10
-171.6954923260
 20
55.5292786999
 40
0.1000000000
 50
90.0000000000
 51
182.2025981618
  0
ARC
  8
Layer0$C$L0
 62
     3
 10
-171.6033325081
 20
53.1292786999
 40
0.2000000000
 50
270.0000000000
 51
330.0000000000
  0
LINE
  8
Layer0$C$L0
 62
     3
 10
-171.6954922271
 20
52.9292786798
 11
-171.6033327361
 21
52.9292786798
  0
LINE
  8
Layer0$C$L0
 62
     3
 10
-171.6954922271
 20
53.0292785099
 11
-171.4301272263
 21
53.0292785099
  0
ARC
  8
Layer0$C$L0
 62
     3
 10
-171.6954923260
 20
53.1292786999
 40
0.1000000000
 50
177.7974018382
 51
270.0000000000
  0
LINE
  8
Layer0$C$L0
 62
     3
 10
-171.7534065214
 20
54.2254354643
 11
-171.7954184827
 21
53.1331219083
  0
LINE
  8
Layer0$C$L0
 62
     3
 10
-171.8533323114
 20
54.2292787998
 11
-171.7534065214
 21
54.2254354643
  0
LINE
  8
Layer0$C$L0
 62
     3
 10
-171.8953447384
 20
53.1369652438
 11
-171.8533323114
 21
54.2292787998
  0
ARC
  8
Layer0$C$L0
 62
     3
 10
-171.6954923260
 20
53.1292786999
 40
0.2000000000
 50
177.7974018382
 51
270.0000000000
  0
LINE
  8
Layer0$C$L0
 62
     3
 10
-171.5233325926
 20
53.1292788057
 11
-171.5233325926
 21
55.5292786869
  0
LINE
  8
Layer0$C$L0
 62
     3
 10
-171.7933323202
 20
58.2292787569
 11
-171.5233325926
 21
58.2292787569
  0
LINE
  8
Layer0$C$L0
 62
     3
 10
-171.7840279420
 20
58.8292786690
 11
-171.5233325926
 21
58.8292786690
  0
LINE
  8
Layer0$C$L0
 62
     3
 10
-171.7933323202
 20
61.2292785502
 11
-171.5233325926
 21
61.2292785502
  0
LINE
  8
Layer0$C$L0
 62
     3
 10
-171.7840279420
 20
60.6292786381
 11
-171.5233325926
 21
60.6292786381
  0
LINE
  8
Layer0$C$L0
 62
     3
 10
-171.7724893209
 20
60.3292786821
 11
-171.6233324227
 21
60.3292786821
  0
LINE
  8
Layer0$C$L0
 62
     3
 10
-171.6233324227
 20
59.1292786251
 11
-171.7724893209
 21
59.1292786251
  0
ARC
  8
Layer0$C$L0
 62
     3
 10
-171.8033325081
 20
60.2292786999
 40
0.1000000000
 50
132.9982440792
 51
180.0000000000
  0
ARC
  8
Layer0$C$L0
 62
     3
 10
-171.8033325081
 20
59.2292786999
 40
0.1000000000
 50
180.0000000000
 51
227.0017559208
  0
ARC
  8
Layer0$C$L0
 62
     3
 10
-171.6233325081
 20
59.0292786999
 40
0.1000000000
 50
0.0000000000
 51
90.0000000000
  0
LINE
  8
Layer0$C$L0
 62
     3
 10
-171.6233324227
 20
59.1292786251
 11
-171.6233324227
 21
60.3292786821
  0
ARC
  8
Layer0$C$L0
 62
     3
 10
-171.6233325081
 20
60.4292786999
 40
0.1000000000
 50
270.0000000000
 51
360.0000000000
  0
LINE
  8
Layer0$C$L0
 62
     3
 10
-171.5233325926
 20
58.0292787474
 11
-171.5233325926
 21
58.3459756874
  0
LINE
  8
Layer0$C$L0
 62
     3
 10
-171.5233325926
 20
61.1125815033
 11
-171.5233325926
 21
61.4292786761
  0
ARC
  8
Layer0$C$L0
 62
     3
 10
-171.6033325081
 20
58.5292786999
 40
0.2000000000
 50
270.0000000000
 51
330.0000000000
  0
LINE
  8
Layer0$C$L0
 62
     3
 10
-171.6954922271
 20
58.3292787035
 11
-171.6033327361
 21
58.3292787035
  0
LINE
  8
Layer0$C$L0
 62
     3
 10
-171.6954922271
 20
58.4292786500
 11
-171.4301272263
 21
58.4292786500
  0
ARC
  8
Layer0$C$L0
 62
     3
 10
-171.6954923260
 20
58.5292786999
 40
0.1000000000
 50
177.7974018382
 51
270.0000000000
  0
LINE
  8
Layer0$C$L0
 62
     3
 10
-171.7534065214
 20
59.6254353716
 11
-171.7954184827
 21
58.5331220484
  0
LINE
  8
Layer0$C$L0
 62
     3
 10
-171.8533323114
 20
59.6292787070
 11
-171.7534065214
 21
59.6254353716
  0
LINE
  8
Layer0$C$L0
 62
     3
 10
-171.8953447384
 20
58.5369652674
 11
-171.8533323114
 21
59.6292787070
  0
ARC
  8
Layer0$C$L0
 62
     3
 10
-171.6954923260
 20
58.5292786999
 40
0.2000000000
 50
177.7974018382
 51
270.0000000000
  0
ARC
  8
Layer0$C$L0
 62
     3
 10
-171.6033325081
 20
60.9292786999
 40
0.2000000000
 50
30.0000000000
 51
90.0000000000
  0
LINE
  8
Layer0$C$L0
 62
     3
 10
-171.6954922271
 20
61.1292787200
 11
-171.6033327361
 21
61.1292787200
  0
ARC
  8
Layer0$C$L0
 62
     3
 10
-171.6954923260
 20
60.9292786999
 40
0.2000000000
 50
90.0000000000
 51
182.2025981618
  0
LINE
  8
Layer0$C$L0
 62
     3
 10
-171.8533323114
 20
59.8292786001
 11
-171.8953447384
 21
60.9215921561
  0
LINE
  8
Layer0$C$L0
 62
     3
 10
-171.7534065214
 20
59.8331219355
 11
-171.8533323114
 21
59.8292786001
  0
LINE
  8
Layer0$C$L0
 62
     3
 10
-171.7954184827
 20
60.9254354915
 11
-171.7534065214
 21
59.8331219355
  0
ARC
  8
Layer0$C$L0
 62
     3
 10
-171.6954923260
 20
60.9292786999
 40
0.1000000000
 50
90.0000000000
 51
182.2025981618
  0
LINE
  8
Layer0$C$L0
 62
     3
 10
-171.4301272263
 20
61.0292788899
 11
-171.6954922271
 21
61.0292788899
  0
LINE
  8
Layer0$C$L0
 62
     3
 10
-171.5233325926
 20
58.5292787130
 11
-171.5233325926
 21
60.9292785941
  0
CIRCLE
  8
Layer0$C$L0
 62
     3
 10
-166.8033325081
 20
57.0292786999
 40
14.0000000000
  0
CIRCLE
  8
Layer0$C$L0
 62
     3
 10
-166.8033325081
 20
57.0292786999
 40
13.6000000000
  0
CIRCLE
  8
Layer0$C$L0
 62
     3
 10
-166.8033325081
 20
57.0292786999
 40
12.9000000000
  0
CIRCLE
  8
Layer0$C$L0
 62
     3
 10
-166.8033325081
 20
57.0292786999
 40
12.7000000000
  0
LINE
  8
Layer0$C$L0
 62
     3
 10
-167.3033325318
 20
38.6893225206
 11
-167.3033325318
 21
43.0382105825
  0
LINE
  8
Layer0$C$L0
 62
     3
 10
-166.3033324843
 20
43.0382105825
 11
-166.3033324843
 21
38.6893225206
  0
LINE
  8
Layer0$C$L0
 62
     3
 10
-176.3429590468
 20
46.7825454963
 11
-178.7516083536
 21
44.3738961896
  0
LINE
  8
Layer0$C$L0
 62
     3
 10
-154.8550566627
 20
44.3738961895
 11
-157.2637059693
 21
46.7825454963
  0
LINE
  8
Layer0$C$L0
 62
     3
 10
-179.4587150183
 20
45.0810028544
 11
-177.0500657116
 21
47.4896521611
  0
LINE
  8
Layer0$C$L0
 62
     3
 10
-156.5565993046
 20
47.4896521611
 11
-154.1479499977
 21
45.0810028545
  0
LINE
  8
Layer0$C$L0
 62
     3
 10
-177.0500657116
 20
66.5689052386
 11
-179.4587150183
 21
68.9775545454
  0
LINE
  8
Layer0$C$L0
 62
     3
 10
-154.1479499977
 20
68.9775545452
 11
-156.5565993046
 21
66.5689052386
  0
LINE
  8
Layer0$C$L0
 62
     3
 10
-157.2637059693
 20
67.2760119034
 11
-154.8550566627
 21
69.6846612103
  0
LINE
  8
Layer0$C$L0
 62
     3
 10
-178.7516083536
 20
69.6846612101
 11
-176.3429590468
 21
67.2760119034
  0
LINE
  8
Layer0$C$L0
 62
     3
 10
-166.3033324843
 20
75.3692348791
 11
-166.3033324843
 21
71.0203468172
  0
LINE
  8
Layer0$C$L0
 62
     3
 10
-167.3033325318
 20
71.0203468172
 11
-167.3033325318
 21
75.3692348791
  0
CIRCLE
  8
Layer0$C$L0
 62
     3
 10
-166.8033325081
 20
57.0292786999
 40
20.0000000000
  0
ARC
  8
Layer0$C$L0
 62
     3
 10
-167.0230585450
 20
38.7533965747
 40
0.7225725478
 50
316.2728765339
 51
354.9126199006
  0
ARC
  8
Layer0$C$L0
 62
     3
 10
-166.5677458906
 20
38.7605936738
 40
0.7390313146
 50
185.5341263536
 51
223.2803772118
  0
ARC
  8
Layer0$C$L0
 62
     3
 10
-179.8818047323
 20
44.2619187430
 40
0.7228455103
 50
271.2804960605
 51
309.9050845427
  0
POLYLINE
  8
Layer0$C$L0
 62
     3
 66
     1
  0
VERTEX
  8
Layer0$C$L0
 62
     3
 10
-178.7516078879
 20
44.3738957239
  0
VERTEX
  8
Layer0$C$L0
 62
     3
 10
-179.1020515342
 20
44.0234530089
  0
VERTEX
  8
Layer0$C$L0
 62
     3
 10
-179.4180865367
 20
43.7074180065
  0
SEQEND
  8
Layer0$C$L0
 62
     3
  0
ARC
  8
Layer0$C$L0
 62
     3
 10
-153.7187326410
 20
44.2782273034
 40
0.7393093840
 50
230.5414435799
 51
268.2729758170
  0
POLYLINE
  8
Layer0$C$L0
 62
     3
 66
     1
  0
VERTEX
  8
Layer0$C$L0
 62
     3
 10
-154.1885784795
 20
43.7074180065
  0
VERTEX
  8
Layer0$C$L0
 62
     3
 10
-154.2784203743
 20
43.7972589699
  0
VERTEX
  8
Layer0$C$L0
 62
     3
 10
-154.5046134819
 20
44.0234530089
  0
VERTEX
  8
Layer0$C$L0
 62
     3
 10
-154.8550571283
 20
44.3738957239
  0
SEQEND
  8
Layer0$C$L0
 62
     3
  0
ARC
  8
Layer0$C$L0
 62
     3
 10
-154.0359725512
 20
43.9508064756
 40
0.7228455103
 50
1.2804960605
 51
39.9050845427
  0
POLYLINE
  8
Layer0$C$L0
 62
     3
 66
     1
  0
VERTEX
  8
Layer0$C$L0
 62
     3
 10
-154.1479495322
 20
45.0810033200
  0
VERTEX
  8
Layer0$C$L0
 62
     3
 10
-153.7975068172
 20
44.7305596737
  0
VERTEX
  8
Layer0$C$L0
 62
     3
 10
-153.4814718147
 20
44.4145246712
  0
SEQEND
  8
Layer0$C$L0
 62
     3
  0
ARC
  8
Layer0$C$L0
 62
     3
 10
-179.5543839046
 20
43.9446788328
 40
0.7393093840
 50
140.5414435799
 51
178.2729758170
  0
POLYLINE
  8
Layer0$C$L0
 62
     3
 66
     1
  0
VERTEX
  8
Layer0$C$L0
 62
     3
 10
-180.1251932015
 20
44.4145246712
  0
VERTEX
  8
Layer0$C$L0
 62
     3
 10
-180.0353522380
 20
44.5043665660
  0
VERTEX
  8
Layer0$C$L0
 62
     3
 10
-179.8091581990
 20
44.7305596737
  0
VERTEX
  8
Layer0$C$L0
 62
     3
 10
-179.4587154840
 20
45.0810033200
  0
SEQEND
  8
Layer0$C$L0
 62
     3
  0
ARC
  8
Layer0$C$L0
 62
     3
 10
-148.5346474820
 20
57.2648653173
 40
0.7390313146
 50
275.5341263536
 51
313.2803772118
  0
LINE
  8
Layer0$C$L0
 62
     3
 10
-148.4633763288
 20
56.5292786761
 11
-152.8122643908
 21
56.5292786761
  0
ARC
  8
Layer0$C$L0
 62
     3
 10
-185.0792146332
 20
57.2490047368
 40
0.7225725478
 50
226.2728765339
 51
264.9126199006
  0
LINE
  8
Layer0$C$L0
 62
     3
 10
-180.7944006254
 20
56.5292786761
 11
-185.1432886874
 21
56.5292786761
  0
ARC
  8
Layer0$C$L0
 62
     3
 10
-185.0720175342
 20
56.7936920824
 40
0.7390313146
 50
95.5341263536
 51
133.2803772118
  0
LINE
  8
Layer0$C$L0
 62
     3
 10
-185.1432886874
 20
57.5292787236
 11
-180.7944006254
 21
57.5292787236
  0
ARC
  8
Layer0$C$L0
 62
     3
 10
-148.5274503829
 20
56.8095526629
 40
0.7225725478
 50
46.2728765339
 51
84.9126199006
  0
LINE
  8
Layer0$C$L0
 62
     3
 10
-152.8122643908
 20
57.5292787236
 11
-148.4633763288
 21
57.5292787236
  0
ARC
  8
Layer0$C$L0
 62
     3
 10
-154.0522811116
 20
70.1138785669
 40
0.7393093840
 50
320.5414435799
 51
358.2729758170
  0
POLYLINE
  8
Layer0$C$L0
 62
     3
 66
     1
  0
VERTEX
  8
Layer0$C$L0
 62
     3
 10
-153.4814718147
 20
69.6440327285
  0
VERTEX
  8
Layer0$C$L0
 62
     3
 10
-153.5713127782
 20
69.5541908337
  0
VERTEX
  8
Layer0$C$L0
 62
     3
 10
-153.7975068172
 20
69.3279977260
  0
VERTEX
  8
Layer0$C$L0
 62
     3
 10
-154.1479495322
 20
68.9775540797
  0
SEQEND
  8
Layer0$C$L0
 62
     3
  0
ARC
  8
Layer0$C$L0
 62
     3
 10
-179.5706924649
 20
70.1077509241
 40
0.7228455103
 50
181.2804960605
 51
219.9050845427
  0
POLYLINE
  8
Layer0$C$L0
 62
     3
 66
     1
  0
VERTEX
  8
Layer0$C$L0
 62
     3
 10
-179.4587154840
 20
68.9775540797
  0
VERTEX
  8
Layer0$C$L0
 62
     3
 10
-179.8091581990
 20
69.3279977260
  0
VERTEX
  8
Layer0$C$L0
 62
     3
 10
-180.1251932015
 20
69.6440327285
  0
SEQEND
  8
Layer0$C$L0
 62
     3
  0
ARC
  8
Layer0$C$L0
 62
     3
 10
-179.8879323752
 20
69.7803300964
 40
0.7393093840
 50
50.5414435799
 51
88.2729758170
  0
POLYLINE
  8
Layer0$C$L0
 62
     3
 66
     1
  0
VERTEX
  8
Layer0$C$L0
 62
     3
 10
-179.4180865367
 20
70.3511393932
  0
VERTEX
  8
Layer0$C$L0
 62
     3
 10
-179.3282446419
 20
70.2612984298
  0
VERTEX
  8
Layer0$C$L0
 62
     3
 10
-179.1020515342
 20
70.0351043908
  0
VERTEX
  8
Layer0$C$L0
 62
     3
 10
-178.7516078879
 20
69.6846616758
  0
SEQEND
  8
Layer0$C$L0
 62
     3
  0
ARC
  8
Layer0$C$L0
 62
     3
 10
-153.7248602839
 20
69.7966386567
 40
0.7228455103
 50
91.2804960605
 51
129.9050845427
  0
POLYLINE
  8
Layer0$C$L0
 62
     3
 66
     1
  0
VERTEX
  8
Layer0$C$L0
 62
     3
 10
-154.8550571283
 20
69.6846616758
  0
VERTEX
  8
Layer0$C$L0
 62
     3
 10
-154.5046134819
 20
70.0351043908
  0
VERTEX
  8
Layer0$C$L0
 62
     3
 10
-154.1885784795
 20
70.3511393932
  0
SEQEND
  8
Layer0$C$L0
 62
     3
  0
ARC
  8
Layer0$C$L0
 62
     3
 10
-167.0389191256
 20
75.2979637259
 40
0.7390313146
 50
5.5341263536
 51
43.2803772118
  0
ARC
  8
Layer0$C$L0
 62
     3
 10
-166.5836064712
 20
75.3051608250
 40
0.7225725478
 50
136.2728765339
 51
174.9126199006
  0
ARC
  8
Layer0$C$L0
 62
     3
 10
-166.8033325081
 20
57.0292786999
 40
17.9000000000
 50
226.6006489657
 51
268.3993510343
  0
ARC
  8
Layer0$C$L0
 62
     3
 10
-166.8033325081
 20
57.0292786999
 40
17.9000000000
 50
271.6006489657
 51
313.3993510343
  0
ARC
  8
Layer0$C$L0
 62
     3
 10
-166.8033325081
 20
57.0292786999
 40
17.9000000000
 50
316.6006489657
 51
358.3993510343
  0
ARC
  8
Layer0$C$L0
 62
     3
 10
-166.8033325081
 20
57.0292786999
 40
17.9000000000
 50
181.6006489657
 51
223.3993510343
  0
ARC
  8
Layer0$C$L0
 62
     3
 10
-166.8033325081
 20
57.0292786999
 40
17.9000000000
 50
1.6006489657
 51
43.3993510343
  0
ARC
  8
Layer0$C$L0
 62
     3
 10
-166.8033325081
 20
57.0292786999
 40
17.9000000000
 50
136.6006489657
 51
178.3993510343
  0
ARC
  8
Layer0$C$L0
 62
     3
 10
-166.8033325081
 20
57.0292786999
 40
17.9000000000
 50
46.6006489657
 51
88.3993510343
  0
ARC
  8
Layer0$C$L0
 62
     3
 10
-166.8033325081
 20
57.0292786999
 40
17.9000000000
 50
91.6006489657
 51
133.3993510343
  0
ARC
  8
Layer0$C$L0
 62
     3
 10
-106.8447422522
 20
153.8826151698
 40
5.0000000000
 50
90.0000000000
 51
133.5965570172
  0
ARC
  8
Layer0$C$L0
 62
     3
 10
-106.8447422522
 20
123.8826151698
 40
5.0000000000
 50
210.0000000000
 51
270.0000000000
  0
ARC
  8
Layer0$C$L0
 62
     3
 10
-106.8447422522
 20
151.8826151698
 40
7.0000000000
 50
14.8328479208
 51
90.0000000000
  0
ARC
  8
Layer0$C$L0
 62
     3
 10
-106.8447422522
 20
125.8826151698
 40
7.0000000000
 50
270.0000000000
 51
345.1671520792
  0
LINE
  8
Layer0$C$L0
 62
     3
 10
-110.2926223822
 20
151.5343287348
 11
-110.2926223822
 21
139.3800996913
  0
LINE
  8
Layer0$C$L0
 62
     3
 10
-110.2926223822
 20
138.3817766647
 11
-110.2926223822
 21
126.2285071745
  0
ARC
  8
Layer0$C$L0
 62
     3
 10
-131.0116617911
 20
145.4826151698
 40
32.0000000000
 50
0.0000000000
 51
14.8328479208
  0
ARC
  8
Layer0$C$L0
 62
     3
 10
-131.0116617911
 20
132.2826151698
 40
32.0000000000
 50
345.1671520792
 51
360.0000000000
  0
LINE
  8
Layer0$C$L0
 62
     3
 10
-110.2926223822
 20
157.2757927089
 11
-110.2926223822
 21
152.3235640809
  0
LINE
  8
Layer0$C$L0
 62
     3
 10
-110.2926223822
 20
125.4540360853
 11
-110.2926223822
 21
120.4892979323
  0
LINE
  8
Layer0$C$L0
 62
     3
 10
-99.0116617460
 20
145.4826151341
 11
-99.0116617460
 21
132.2826152056
  0
LINE
  8
Layer0$C$L0
 62
     3
 10
-110.2926223822
 20
152.8736832872
 11
-113.2724308692
 21
152.8736832872
  0
LINE
  8
Layer0$C$L0
 62
     3
 10
-110.2926223822
 20
148.4222417086
 11
-113.2724308692
 21
148.4222417086
  0
LINE
  8
Layer0$C$L0
 62
     3
 10
-110.2926223822
 20
129.3429886311
 11
-113.2724308692
 21
129.3429886311
  0
LINE
  8
Layer0$C$L0
 62
     3
 10
-110.2926223822
 20
124.8915470525
 11
-113.2724308692
 21
124.8915470525
  0
LINE
  8
Layer0$C$L0
 62
     3
 10
-114.1116614737
 20
152.7826157152
 11
-114.1116614737
 21
124.8826147377
  0
ARC
  8
Layer0$C$L0
 62
     3
 10
-106.8447416354
 20
72.0292786999
 40
5.0000000000
 50
90.0000000000
 51
150.0000000000
  0
ARC
  8
Layer0$C$L0
 62
     3
 10
-106.8447416354
 20
42.0292786999
 40
5.0000000000
 50
210.0000000000
 51
270.0000000000
  0
ARC
  8
Layer0$C$L0
 62
     3
 10
-106.8447416354
 20
70.0292786999
 40
7.0000000000
 50
14.8328479208
 51
90.0000000000
  0
ARC
  8
Layer0$C$L0
 62
     3
 10
-106.8447416354
 20
44.0292786999
 40
7.0000000000
 50
270.0000000000
 51
345.1671520792
  0
LINE
  8
Layer0$C$L0
 62
     3
 10
-110.2926217654
 20
69.6809922649
 11
-110.2926217654
 21
57.5267632214
  0
LINE
  8
Layer0$C$L0
 62
     3
 10
-110.2926217654
 20
56.5284401948
 11
-110.2926217654
 21
44.3751707046
  0
ARC
  8
Layer0$C$L0
 62
     3
 10
-131.0116611743
 20
63.6292786999
 40
32.0000000000
 50
0.0000000000
 51
14.8328479208
  0
ARC
  8
Layer0$C$L0
 62
     3
 10
-131.0116611743
 20
50.4292786999
 40
32.0000000000
 50
345.1671520792
 51
360.0000000000
  0
LINE
  8
Layer0$C$L0
 62
     3
 10
-110.2926217654
 20
75.4224562390
 11
-110.2926217654
 21
70.4702276109
  0
LINE
  8
Layer0$C$L0
 62
     3
 10
-110.2926217654
 20
43.6006996153
 11
-110.2926217654
 21
38.6359614624
  0
LINE
  8
Layer0$C$L0
 62
     3
 10
-99.0116611292
 20
63.6292786641
 11
-99.0116611292
 21
50.4292787357
  0
LINE
  8
Layer0$C$L0
 62
     3
 10
-110.2926217654
 20
71.0203468172
 11
-113.2724302524
 21
71.0203468172
  0
LINE
  8
Layer0$C$L0
 62
     3
 10
-110.2926217654
 20
66.5689052386
 11
-113.2724302524
 21
66.5689052386
  0
LINE
  8
Layer0$C$L0
 62
     3
 10
-110.2926217654
 20
47.4896521611
 11
-113.2724302524
 21
47.4896521611
  0
LINE
  8
Layer0$C$L0
 62
     3
 10
-110.2926217654
 20
43.0382105826
 11
-113.2724302524
 21
43.0382105826
  0
LINE
  8
Layer0$C$L0
 62
     3
 10
-114.1116608569
 20
71.0292791320
 11
-114.1116608569
 21
43.0292782678
  0
LINE
  8
Layer1$C$L1
 62
     3
 10
-22.0669675034
 20
46.2164717153
 11
-21.5507487107
 21
45.4792348754
  0
LINE
  8
Layer1$C$L1
 62
     3
 10
-23.3861933070
 20
48.1005214171
 11
-22.8699745143
 21
47.3632845773
  0
LINE
  8
Layer1$C$L1
 62
     3
 10
-16.8879555562
 20
60.4456900953
 11
-18.2402517130
 21
60.0833434321
  0
ARC
  8
Layer1$C$L1
 62
     3
 10
-29.6381764632
 20
57.0292786999
 40
13.2000000000
 50
305.0000000000
 51
375.0000000000
  0
ARC
  8
Layer1$C$L1
 62
     3
 10
-29.6381764632
 20
57.0292786999
 40
11.8000000000
 50
305.0000000000
 51
375.0000000000
  0
LINE
  8
Layer1$C$L1
 62
     3
 10
-21.5507487107
 20
45.4792348754
 11
-26.4029383995
 21
44.9552058713
  0
LINE
  8
Layer1$C$L1
 62
     3
 10
-26.4029383995
 20
44.9552058713
 11
-23.3861933070
 21
48.1005214171
  0
LINE
  8
Layer1$C$L1
 62
     3
 10
-42.7879464781
 20
55.8788228956
 11
-43.6845217063
 21
55.8003827272
  0
LINE
  8
Layer1$C$L1
 62
     3
 10
-40.4966986724
 20
56.0792811039
 11
-41.3932739007
 21
56.0008409355
  0
LINE
  8
Layer1$C$L1
 62
     3
 10
-33.0545878586
 20
44.2790577929
 11
-32.6922411955
 21
45.6313539497
  0
ARC
  8
Layer1$C$L1
 62
     3
 10
-29.6381764632
 20
57.0292786999
 40
13.2000000000
 50
185.0000000000
 51
255.0000000000
  0
ARC
  8
Layer1$C$L1
 62
     3
 10
-29.6381764632
 20
57.0292786999
 40
11.8000000000
 50
185.0000000000
 51
255.0000000000
  0
LINE
  8
Layer1$C$L1
 62
     3
 10
-43.6845217063
 20
55.8003827272
 11
-41.7122492919
 21
60.2645167637
  0
LINE
  8
Layer1$C$L1
 62
     3
 10
-41.7122492919
 20
60.2645167637
 11
-40.4966986724
 21
56.0792811039
  0
LINE
  8
Layer1$C$L1
 62
     3
 10
-20.7993416984
 20
65.8681134647
 11
-25.0316374103
 21
66.9080335786
  0
LINE
  8
Layer1$C$L1
 62
     3
 10
-23.6792589727
 20
69.8082184971
 11
-20.7993416984
 21
65.8681134647
  0
ARC
  8
Layer1$C$L1
 62
     3
 10
-29.6381764632
 20
57.0292786999
 40
11.8000000000
 50
65.0000000000
 51
135.0000000000
  0
ARC
  8
Layer1$C$L1
 62
     3
 10
-29.6381764632
 20
57.0292786999
 40
13.2000000000
 50
65.0000000000
 51
135.0000000000
  0
CIRCLE
  8
Layer0$C$L0
 62
     3
 10
-29.6381764632
 20
57.0292786999
 40
5.1000000000
  0
CIRCLE
  8
Layer0$C$L0
 62
     3
 10
-29.6381764632
 20
57.0292786999
 40
20.0000000000
  0
LINE
  8
Layer1$C$L1
 62
     3
 10
-38.9719859749
 20
66.3630882116
 11
-37.9820364812
 21
65.3731387179
  0
LINE
  8
Layer1$C$L1
 62
     3
 10
-25.0316374103
 20
66.9080335786
 11
-24.6512809747
 21
67.7237105869
  0
LINE
  8
Layer1$C$L1
 62
     3
 10
-24.0596154083
 20
68.9925414888
 11
-23.6792589727
 21
69.8082184971
  0
LINE
  8
Layer1$C$L1
  6
CENTERLINE
 62
     3
 10
-29.6381764632
 20
36.0292786999
 11
-29.6381764632
 21
78.0292786999
  0
LINE
  8
Layer0$C$L0
 62
     3
 10
-114.0616199636
 20
43.0325872569
 11
-114.0616199636
 21
43.0292782678
  0
CIRCLE
  8
Layer0$C$L0
 62
     3
 10
-73.6381764632
 20
57.0292786999
 40
20.0000000000
  0
LINE
  8
Layer1$C$L1
  6
CENTERLINE
 62
     3
 10
-50.6381764632
 20
57.0292786999
 11
-8.6381764632
 21
57.0292786999
  0
LINE
  8
Layer1$C$L1
  6
CENTERLINE
 62
     3
 10
-73.6381764632
 20
36.0292786999
 11
-73.6381764632
 21
78.0292786999
  0
LINE
  8
Layer1$C$L1
  6
CENTERLINE
 62
     3
 10
-94.6381764632
 20
57.0292786999
 11
-52.6381764632
 21
57.0292786999
  0
CIRCLE
  8
Layer1$C$L1
 62
     3
 10
-73.6381764632
 20
57.0292786999
 40
3.9000000000
  0
CIRCLE
  8
Layer1$C$L1
 62
     3
 10
-73.6381764632
 20
57.0292786999
 40
5.1000000000
  0
POLYLINE
  8
Layer0$C$L0
 62
     3
 66
     1
  0
VERTEX
  8
Layer0$C$L0
 62
     3
 10
-125.3927246370
 20
66.5148093669
  0
VERTEX
  8
Layer0$C$L0
 62
     3
 10
-125.3906822466
 20
66.5274436890
  0
VERTEX
  8
Layer0$C$L0
 62
     3
 10
-125.3875078336
 20
66.5349734320
  0
SEQEND
  8
Layer0$C$L0
 62
     3
  0
POLYLINE
  8
Layer0$C$L0
 62
     3
 66
     1
  0
VERTEX
  8
Layer0$C$L0
 62
     3
 10
-125.3927246370
 20
46.3091197728
  0
VERTEX
  8
Layer0$C$L0
 62
     3
 10
-125.3853718453
 20
46.3125768422
  0
VERTEX
  8
Layer0$C$L0
 62
     3
 10
-125.3768916876
 20
46.3165647655
  0
VERTEX
  8
Layer0$C$L0
 62
     3
 10
-125.3653959074
 20
46.3219710930
  0
VERTEX
  8
Layer0$C$L0
 62
     3
 10
-125.3510945179
 20
46.3286961733
  0
VERTEX
  8
Layer0$C$L0
 62
     3
 10
-125.3342487552
 20
46.3366180031
  0
VERTEX
  8
Layer0$C$L0
 62
     3
 10
-125.3151664213
 20
46.3455912961
  0
VERTEX
  8
Layer0$C$L0
 62
     3
 10
-125.2941958309
 20
46.3554530709
  0
SEQEND
  8
Layer0$C$L0
 62
     3
  0
POLYLINE
  8
Layer0$C$L0
 62
     3
 66
     1
  0
VERTEX
  8
Layer0$C$L0
 62
     3
 10
-125.2941958309
 20
67.7031043290
  0
VERTEX
  8
Layer0$C$L0
 62
     3
 10
-125.3151664213
 20
67.7129661037
  0
VERTEX
  8
Layer0$C$L0
 62
     3
 10
-125.3342487552
 20
67.7219393967
  0
VERTEX
  8
Layer0$C$L0
 62
     3
 10
-125.3510945179
 20
67.7298612266
  0
VERTEX
  8
Layer0$C$L0
 62
     3
 10
-125.3653959074
 20
67.7365863069
  0
VERTEX
  8
Layer0$C$L0
 62
     3
 10
-125.3768916876
 20
67.7419926344
  0
VERTEX
  8
Layer0$C$L0
 62
     3
 10
-125.3853718453
 20
67.7459805577
  0
VERTEX
  8
Layer0$C$L0
 62
     3
 10
-125.3927246370
 20
67.7494376271
  0
SEQEND
  8
Layer0$C$L0
 62
     3
  0
POLYLINE
  8
Layer0$C$L0
 62
     3
 66
     1
  0
VERTEX
  8
Layer0$C$L0
 62
     3
 10
-125.3875725605
 20
47.5237031772
  0
VERTEX
  8
Layer0$C$L0
 62
     3
 10
-125.3906822466
 20
47.5311137109
  0
VERTEX
  8
Layer0$C$L0
 62
     3
 10
-125.3927246370
 20
47.5437480329
  0
SEQEND
  8
Layer0$C$L0
 62
     3
  0
POLYLINE
  8
Layer0$C$L0
 62
     3
 66
     1
  0
VERTEX
  8
Layer0$C$L0
 62
     3
 10
-139.1116609149
 20
134.1326153225
  0
VERTEX
  8
Layer0$C$L0
 62
     3
 10
-139.0790310972
 20
134.1423467121
  0
VERTEX
  8
Layer0$C$L0
 62
     3
 10
-138.9821120821
 20
134.1712526365
  0
VERTEX
  8
Layer0$C$L0
 62
     3
 10
-138.8237742059
 20
134.2184758133
  0
VERTEX
  8
Layer0$C$L0
 62
     3
 10
-138.6087169223
 20
134.2826150677
  0
SEQEND
  8
Layer0$C$L0
 62
     3
  0
POLYLINE
  8
Layer0$C$L0
 62
     3
 66
     1
  0
VERTEX
  8
Layer0$C$L0
 62
     3
 10
-138.6087169223
 20
133.7826149858
  0
VERTEX
  8
Layer0$C$L0
 62
     3
 10
-138.8237742059
 20
133.8467547058
  0
VERTEX
  8
Layer0$C$L0
 62
     3
 10
-138.9821120821
 20
133.8939774169
  0
VERTEX
  8
Layer0$C$L0
 62
     3
 10
-139.0790310972
 20
133.9228838070
  0
VERTEX
  8
Layer0$C$L0
 62
     3
 10
-139.1116609149
 20
133.9326151966
  0
SEQEND
  8
Layer0$C$L0
 62
     3
  0
POLYLINE
  8
Layer0$C$L0
 62
     3
 66
     1
  0
VERTEX
  8
Layer0$C$L0
 62
     3
 10
-125.3927252539
 20
148.3681458368
  0
VERTEX
  8
Layer0$C$L0
 62
     3
 10
-125.3906828635
 20
148.3807801588
  0
VERTEX
  8
Layer0$C$L0
 62
     3
 10
-125.3875084505
 20
148.3883099019
  0
SEQEND
  8
Layer0$C$L0
 62
     3
  0
POLYLINE
  8
Layer0$C$L0
 62
     3
 66
     1
  0
VERTEX
  8
Layer0$C$L0
 62
     3
 10
-125.3927252539
 20
128.1624562426
  0
VERTEX
  8
Layer0$C$L0
 62
     3
 10
-125.3853724622
 20
128.1659133120
  0
VERTEX
  8
Layer0$C$L0
 62
     3
 10
-125.3768923045
 20
128.1699012353
  0
VERTEX
  8
Layer0$C$L0
 62
     3
 10
-125.3653965243
 20
128.1753075628
  0
VERTEX
  8
Layer0$C$L0
 62
     3
 10
-125.3510951348
 20
128.1820326432
  0
VERTEX
  8
Layer0$C$L0
 62
     3
 10
-125.3342493721
 20
128.1899544730
  0
VERTEX
  8
Layer0$C$L0
 62
     3
 10
-125.3151670382
 20
128.1989277660
  0
VERTEX
  8
Layer0$C$L0
 62
     3
 10
-125.2941964478
 20
128.2087895407
  0
SEQEND
  8
Layer0$C$L0
 62
     3
  0
POLYLINE
  8
Layer0$C$L0
 62
     3
 66
     1
  0
VERTEX
  8
Layer0$C$L0
 62
     3
 10
-125.2941964478
 20
149.5564407988
  0
VERTEX
  8
Layer0$C$L0
 62
     3
 10
-125.3151670382
 20
149.5663025736
  0
VERTEX
  8
Layer0$C$L0
 62
     3
 10
-125.3342493721
 20
149.5752758666
  0
VERTEX
  8
Layer0$C$L0
 62
     3
 10
-125.3510951348
 20
149.5831976964
  0
VERTEX
  8
Layer0$C$L0
 62
     3
 10
-125.3653965243
 20
149.5899227767
  0
VERTEX
  8
Layer0$C$L0
 62
     3
 10
-125.3768923045
 20
149.5953291043
  0
VERTEX
  8
Layer0$C$L0
 62
     3
 10
-125.3853724622
 20
149.5993170275
  0
VERTEX
  8
Layer0$C$L0
 62
     3
 10
-125.3927252539
 20
149.6027740969
  0
SEQEND
  8
Layer0$C$L0
 62
     3
  0
POLYLINE
  8
Layer0$C$L0
 62
     3
 66
     1
  0
VERTEX
  8
Layer0$C$L0
 62
     3
 10
-125.3875731774
 20
129.3770396470
  0
VERTEX
  8
Layer0$C$L0
 62
     3
 10
-125.3906828635
 20
129.3844501807
  0
VERTEX
  8
Layer0$C$L0
 62
     3
 10
-125.3927252539
 20
129.3970845028
  0
SEQEND
  8
Layer0$C$L0
 62
     3
  0
LINE
  8
Layer1$C$L1
  6
CENTERLINE
 62
     3
 10
-142.1116609149
 20
57.0292786999
 11
-96.0116611292
 21
57.0292786999
  0
INSERT
  8
Layer8$C$L8
 66
     1
  2
Cadra_attr_0
 10
0.000000
 20
0.000000
  0
ATTRIB
  8
Layer8$C$L8
 10
-46.747117
 20
18.500000
 40
0.156000
  1
  
  2
20
 70
    11
  0
SEQEND
  8
Layer8$C$L8
  0
ARC
  8
Layer0$C$L0
 62
     3
 10
-125.1212791627
 20
46.4292786999
 40
0.3000000000
 50
205.2011236455
 51
270.0000000000
  0
LINE
  8
Layer0$C$L0
 62
     3
 10
-113.7116608255
 20
71.0292786999
 11
-113.7116608255
 21
43.0292786999
  0
LINE
  8
Layer0$C$L0
 62
     3
 10
-114.5116608255
 20
43.4292785196
 11
-114.5116608255
 21
70.6292788802
  0
LINE
  8
Layer0$C$L0
 62
     3
 10
-126.1116608255
 20
47.8292784957
 11
-126.1116608255
 21
66.2292789041
  0
LINE
  8
Layer0$C$L0
 62
     3
 10
-125.4868424204
 20
49.8756554281
 11
-125.4868424204
 21
51.4200371287
  0
LINE
  8
Layer0$C$L0
 62
     3
 10
-125.3927247733
 20
49.1638754037
 11
-125.3927247733
 21
49.7340874119
  0
LINE
  8
Layer0$C$L0
 62
     3
 10
-125.4868424204
 20
48.1203112124
 11
-125.4868424204
 21
49.3053569702
  0
LINE
  8
Layer0$C$L0
 62
     3
 10
-125.3927247733
 20
47.5437480329
 11
-125.3927247733
 21
47.9469487580
  0
LINE
  8
Layer0$C$L0
 62
     3
 10
-125.4868424204
 20
46.9720984745
 11
-125.4868424204
 21
47.7170494689
  0
LINE
  8
Layer0$C$L0
 62
     3
 10
-125.3927247733
 20
46.5700437618
 11
-125.3927247733
 21
46.7787559825
  0
LINE
  8
Layer0$C$L0
 62
     3
 10
-125.4868424204
 20
46.5092656506
 11
-125.4868424204
 21
46.7633546997
  0
LINE
  8
Layer0$C$L0
 62
     3
 10
-126.8116608255
 20
47.8292784957
 11
-126.8116608255
 21
48.3321527379
  0
LINE
  8
Layer0$C$L0
 62
     3
 10
-126.8116607033
 20
48.3321527379
 11
-127.7116610371
 21
48.3321527379
  0
LINE
  8
Layer0$C$L0
 62
     3
 10
-127.7116608255
 20
48.3321526391
 11
-127.7116608255
 21
54.0292786999
  0
LINE
  8
Layer0$C$L0
 62
     3
 10
-125.2153968098
 20
51.1700775591
 11
-125.2153968097
 21
49.8976257933
  0
LINE
  8
Layer0$C$L0
 62
     3
 10
-125.1634996087
 20
49.8994048297
 11
-122.6116608255
 21
49.8994048297
  0
LINE
  8
Layer0$C$L0
 62
     3
 10
-125.1212791627
 20
48.9856835930
 11
-125.1212791627
 21
49.8927889696
  0
ARC
  8
Layer0$C$L0
 62
     3
 10
-125.1767869425
 20
49.7072863218
 40
0.2175946685
 50
122.6547115763
 51
172.9249861699
  0
LINE
  8
Layer0$C$L0
 62
     3
 10
-122.6116608255
 20
49.6153317580
 11
-125.1212791627
 21
49.6153317580
  0
LINE
  8
Layer0$C$L0
 62
     3
 10
-125.1212791627
 20
49.8927888380
 11
-122.6116608255
 21
49.8927888380
  0
LINE
  8
Layer0$C$L0
 62
     3
 10
-125.1212791627
 20
49.0390727738
 11
-122.6116608255
 21
49.0390727738
  0
LINE
  8
Layer0$C$L0
 62
     3
 10
-125.2153968098
 20
49.0524667302
 11
-125.2153968097
 21
48.0760799093
  0
LINE
  8
Layer0$C$L0
 62
     3
 10
-125.1634996087
 20
48.0773870015
 11
-122.6116608255
 21
48.0773870015
  0
LINE
  8
Layer0$C$L0
 62
     3
 10
-125.1212791627
 20
47.3692870292
 11
-125.1212791627
 21
48.0692840995
  0
ARC
  8
Layer0$C$L0
 62
     3
 10
-125.1994742562
 20
47.8994995804
 40
0.1989904189
 50
118.4250983534
 51
166.2049498898
  0
LINE
  8
Layer0$C$L0
 62
     3
 10
-122.6116608255
 20
47.7999384060
 11
-125.1212791627
 21
47.7999384060
  0
LINE
  8
Layer0$C$L0
 62
     3
 10
-125.1212791627
 20
48.0692840995
 11
-122.6116608255
 21
48.0692840995
  0
LINE
  8
Layer0$C$L0
 62
     3
 10
-125.1212791627
 20
47.3924617705
 11
-122.6116608255
 21
47.3924617705
  0
LINE
  8
Layer0$C$L0
 62
     3
 10
-125.1634996087
 20
46.8654257988
 11
-122.6116608255
 21
46.8654257988
  0
LINE
  8
Layer0$C$L0
 62
     3
 10
-125.1212791627
 20
46.3975691408
 11
-125.1212791627
 21
46.8563882007
  0
ARC
  8
Layer0$C$L0
 62
     3
 10
-125.2139488062
 20
46.6819905836
 40
0.2032840103
 50
113.2505105143
 51
151.5749733145
  0
LINE
  8
Layer0$C$L0
 62
     3
 10
-122.6116608255
 20
46.6135093429
 11
-125.1212791627
 21
46.6135093429
  0
LINE
  8
Layer0$C$L0
 62
     3
 10
-125.1212791627
 20
46.8563881860
 11
-122.6116608255
 21
46.8563881860
  0
LINE
  8
Layer0$C$L0
 62
     3
 10
-125.1212791627
 20
46.4025839154
 11
-122.6116608255
 21
46.4025839154
  0
LINE
  8
Layer0$C$L0
 62
     3
 10
-125.3915844066
 20
46.5655301664
 11
-125.3927247733
 21
46.5700439393
  0
LINE
  8
Layer0$C$L0
 62
     3
 10
-125.1634996087
 20
46.3461143747
 11
-122.6116608255
 21
46.3461143747
  0
LINE
  8
Layer0$C$L0
 62
     3
 10
-125.1212791627
 20
46.1292785896
 11
-125.1212791627
 21
46.3367579494
  0
LINE
  8
Layer0$C$L0
 62
     3
 10
-125.3927247733
 20
46.3091193904
 11
-125.2941955846
 21
46.3554533066
  0
LINE
  8
Layer0$C$L0
 62
     3
 10
-122.6116608255
 20
46.1368977485
 11
-125.1212791627
 21
46.1368977485
  0
LINE
  8
Layer0$C$L0
 62
     3
 10
-125.1212791627
 20
46.3367579494
 11
-122.6116608255
 21
46.3367579494
  0
LINE
  8
Layer0$C$L0
 62
     3
 10
-119.6116608255
 20
68.4792788072
 11
-119.6116608255
 21
45.5792785926
  0
LINE
  8
Layer0$C$L0
 62
     3
 10
-117.1116608255
 20
69.6292787163
 11
-117.1116608255
 21
44.4292786835
  0
LINE
  8
Layer0$C$L0
 62
     3
 10
-117.2116608255
 20
69.5292788862
 11
-117.2116608255
 21
44.5292785136
  0
LINE
  8
Layer0$C$L0
 62
     3
 10
-119.0116608255
 20
69.5292788862
 11
-119.0116608255
 21
44.5292785136
  0
LINE
  8
Layer0$C$L0
 62
     3
 10
-127.7116608255
 20
49.1928254206
 11
-128.2513773703
 21
49.1928254206
  0
LINE
  8
Layer0$C$L0
 62
     3
 10
-128.2513773003
 20
54.2634153628
 11
-128.2513773003
 21
49.1928250832
  0
LINE
  8
Layer0$C$L0
 62
     3
 10
-128.5116608255
 20
64.3613998119
 11
-128.5116608255
 21
49.6971575879
  0
LINE
  8
Layer0$C$L0
 62
     3
 10
-133.0116608255
 20
49.6292786976
 11
-133.0116608255
 21
49.7629178501
  0
LINE
  8
Layer0$C$L0
 62
     3
 10
-131.4116608255
 20
49.7629178501
 11
-131.4116608255
 21
49.6292786976
  0
LINE
  8
Layer0$C$L0
 62
     3
 10
-133.0116608255
 20
49.7629178501
 11
-131.4116608255
 21
49.7629178501
  0
LINE
  8
Layer0$C$L0
 62
     3
 10
-135.3116608255
 20
64.4292787022
 11
-135.3116608255
 21
49.6292786976
  0
LINE
  8
Layer0$C$L0
 62
     3
 10
-135.5116608255
 20
49.8292786999
 11
-135.5116608255
 21
64.2292786999
  0
LINE
  8
Layer0$C$L0
 62
     3
 10
-125.3927247733
 20
46.3015395890
 11
-125.3927247733
 21
46.3091197728
  0
ARC
  8
Layer0$C$L0
 62
     3
 10
-125.3034066907
 20
49.1642427589
 40
8.9318838057E-02
 50
180.2356497534
 51
213.2028773401
  0
LINE
  8
Layer0$C$L0
 62
     3
 10
-125.2153968097
 20
47.3769081129
 11
-125.2153968097
 21
46.8646802714
  0
LINE
  8
Layer0$C$L0
 62
     3
 10
-125.2153968097
 20
46.3949011012
 11
-125.2153968097
 21
46.3459805889
  0
ARC
  8
Layer0$C$L0
 62
     3
 10
-125.3033256274
 20
49.1642544458
 40
8.9399811273E-02
 50
180.2426388915
 51
212.7834462522
  0
LINE
  8
Layer0$C$L0
 62
     3
 10
-125.3927246872
 20
46.5700439609
 11
-125.3915902505
 21
46.5655425385
  0
ARC
  8
Layer0$C$L0
 62
     3
 10
-125.1994763106
 20
47.8995013291
 40
0.1989877674
 50
118.4249196305
 51
166.2054139830
  0
LINE
  8
Layer0$C$L0
 62
     3
 10
-114.0116610267
 20
43.0292782677
 11
-114.0116610267
 21
71.0292791321
  0
LINE
  8
Layer1$C$L1
 10
-135.3116608255
 20
49.6292786976
 11
-133.0116608255
 21
49.6292786976
  0
LINE
  8
Layer1$C$L1
 10
-131.4116608255
 20
49.6292786976
 11
-128.2513773003
 21
49.6292786976
  0
LINE
  8
Layer1$C$L1
 10
-125.4868424203
 20
46.5092656507
 11
-126.1116608255
 21
47.8292784958
  0
LINE
  8
Layer1$C$L1
 10
-126.8116608255
 20
47.8292784958
 11
-126.1116608255
 21
47.8292784958
  0
LINE
  8
Layer1$C$L1
 10
-114.5116608255
 20
43.5292783497
 11
-114.0116610267
 21
43.0292782678
  0
LINE
  8
Layer1$C$L1
 10
-114.0116610267
 20
43.0292782678
 11
-113.0116608255
 21
43.0292782678
  0
LINE
  8
Layer1$C$L1
 10
-117.1116608255
 20
44.4292786835
 11
-114.5116608255
 21
44.4292786835
  0
LINE
  8
Layer1$C$L1
 10
-119.6116608255
 20
45.5792785926
 11
-119.0116608255
 21
45.5792785926
  0
LINE
  8
Layer1$C$L1
 10
-119.0116608255
 20
44.5292785137
 11
-117.2116608255
 21
44.5292785137
  0
LINE
  8
Layer1$C$L1
 10
-135.3116608255
 20
49.6292786976
 11
-135.5116608255
 21
49.8292786999
  0
LINE
  8
Layer1$C$L1
 10
-135.3116608255
 20
64.4292787022
 11
-135.5116608255
 21
64.2292786999
  0
LINE
  8
Layer0$C$L0
 62
     3
 10
-126.8116608255
 20
66.2292789041
 11
-126.8116608255
 21
65.7264046619
  0
LINE
  8
Layer0$C$L0
 62
     3
 10
-126.8116607033
 20
65.7264046619
 11
-127.7116610371
 21
65.7264046619
  0
LINE
  8
Layer0$C$L0
 62
     3
 10
-127.7116608255
 20
65.7264047607
 11
-127.7116608255
 21
60.0292786999
  0
LINE
  8
Layer1$C$L1
 10
-119.0116608255
 20
69.5292788861
 11
-117.2116608255
 21
69.5292788861
  0
LINE
  8
Layer1$C$L1
 10
-119.6116608255
 20
68.4792788072
 11
-119.0116608255
 21
68.4792788072
  0
LINE
  8
Layer1$C$L1
 10
-117.1116608255
 20
69.6292787163
 11
-114.5116608255
 21
69.6292787163
  0
LINE
  8
Layer1$C$L1
 10
-114.0116610267
 20
71.0292791320
 11
-113.0116608255
 21
71.0292791320
  0
LINE
  8
Layer1$C$L1
 10
-114.5116608255
 20
70.5292790501
 11
-114.0116610267
 21
71.0292791320
  0
LINE
  8
Layer1$C$L1
 10
-126.8116608255
 20
66.2292789040
 11
-126.1116608255
 21
66.2292789040
  0
LINE
  8
Layer1$C$L1
 10
-125.4868424203
 20
67.5492917491
 11
-126.1116608255
 21
66.2292789040
  0
LINE
  8
Layer1$C$L1
 10
-121.5116608255
 20
66.3292787342
 11
-119.6116608255
 21
66.3292787342
  0
LINE
  8
Layer1$C$L1
 10
-131.4116608255
 20
64.4292787022
 11
-128.2513773003
 21
64.4292787022
  0
LINE
  8
Layer1$C$L1
 10
-135.3116608255
 20
64.4292787022
 11
-133.0116608255
 21
64.4292787022
  0
ARC
  8
Layer0$C$L0
 62
     3
 10
-125.1212797795
 20
128.2826151698
 40
0.3000000000
 50
205.2011236455
 51
270.0000000000
  0
LINE
  8
Layer0$C$L0
 62
     3
 10
-113.7116614424
 20
152.8826151698
 11
-113.7116614424
 21
124.8826151698
  0
LINE
  8
Layer0$C$L0
 62
     3
 10
-114.5116614424
 20
125.2826149895
 11
-114.5116614424
 21
152.3826155200
  0
LINE
  8
Layer0$C$L0
 62
     3
 10
-126.1116614424
 20
129.6826149656
 11
-126.1116614424
 21
148.0826153740
  0
LINE
  8
Layer0$C$L0
 62
     3
 10
-125.4868430372
 20
131.7289918980
 11
-125.4868430372
 21
133.2733735986
  0
LINE
  8
Layer0$C$L0
 62
     3
 10
-125.3927253902
 20
131.0172118735
 11
-125.3927253902
 21
131.5874238818
  0
LINE
  8
Layer0$C$L0
 62
     3
 10
-125.4868430372
 20
129.9736476823
 11
-125.4868430372
 21
131.1586934401
  0
LINE
  8
Layer0$C$L0
 62
     3
 10
-125.3927253902
 20
129.3970845028
 11
-125.3927253902
 21
129.8002852279
  0
LINE
  8
Layer0$C$L0
 62
     3
 10
-125.4868430372
 20
128.8254349444
 11
-125.4868430372
 21
129.5703859388
  0
LINE
  8
Layer0$C$L0
 62
     3
 10
-125.3927253902
 20
128.4233802318
 11
-125.3927253902
 21
128.6320924524
  0
LINE
  8
Layer0$C$L0
 62
     3
 10
-125.4868430372
 20
128.3626021205
 11
-125.4868430372
 21
128.6166911696
  0
LINE
  8
Layer0$C$L0
 62
     3
 10
-126.8116614424
 20
129.6826149656
 11
-126.8116614424
 21
130.1854892078
  0
LINE
  8
Layer0$C$L0
 62
     3
 10
-126.8116613202
 20
130.1854892078
 11
-127.7116616540
 21
130.1854892078
  0
LINE
  8
Layer0$C$L0
 62
     3
 10
-127.7116614424
 20
130.1854891091
 11
-127.7116614424
 21
135.8826151698
  0
LINE
  8
Layer0$C$L0
 62
     3
 10
-125.2153974266
 20
133.0234140290
 11
-125.2153974266
 21
131.7509622632
  0
LINE
  8
Layer0$C$L0
 62
     3
 10
-125.1635002256
 20
131.7527412997
 11
-122.6116614424
 21
131.7527412997
  0
LINE
  8
Layer0$C$L0
 62
     3
 10
-125.1212797795
 20
130.8390200628
 11
-125.1212797795
 21
131.7461254395
  0
ARC
  8
Layer0$C$L0
 62
     3
 10
-125.1767875593
 20
131.5606227918
 40
0.2175946685
 50
122.6547115763
 51
172.9249861699
  0
LINE
  8
Layer0$C$L0
 62
     3
 10
-122.6116614424
 20
131.4686682280
 11
-125.1212797795
 21
131.4686682280
  0
LINE
  8
Layer0$C$L0
 62
     3
 10
-125.1212797795
 20
131.7461253079
 11
-122.6116614424
 21
131.7461253079
  0
LINE
  8
Layer0$C$L0
 62
     3
 10
-125.1212797795
 20
130.8924092437
 11
-122.6116614424
 21
130.8924092437
  0
LINE
  8
Layer0$C$L0
 62
     3
 10
-125.2153974266
 20
130.9058032001
 11
-125.2153974266
 21
129.9294163792
  0
LINE
  8
Layer0$C$L0
 62
     3
 10
-125.1635002256
 20
129.9307234714
 11
-122.6116614424
 21
129.9307234714
  0
LINE
  8
Layer0$C$L0
 62
     3
 10
-125.1212797795
 20
129.2226234991
 11
-125.1212797795
 21
129.9226205694
  0
ARC
  8
Layer0$C$L0
 62
     3
 10
-125.1994748731
 20
129.7528360503
 40
0.1989904189
 50
118.4250983535
 51
166.2049498897
  0
LINE
  8
Layer0$C$L0
 62
     3
 10
-122.6116614424
 20
129.6532748759
 11
-125.1212797795
 21
129.6532748759
  0
LINE
  8
Layer0$C$L0
 62
     3
 10
-125.1212797795
 20
129.9226205694
 11
-122.6116614424
 21
129.9226205694
  0
LINE
  8
Layer0$C$L0
 62
     3
 10
-125.1212797795
 20
129.2457982404
 11
-122.6116614424
 21
129.2457982404
  0
LINE
  8
Layer0$C$L0
 62
     3
 10
-125.1635002256
 20
128.7187622687
 11
-122.6116614424
 21
128.7187622687
  0
LINE
  8
Layer0$C$L0
 62
     3
 10
-125.1212797795
 20
128.2509056107
 11
-125.1212797795
 21
128.7097246706
  0
ARC
  8
Layer0$C$L0
 62
     3
 10
-125.2139494230
 20
128.5353270536
 40
0.2032840103
 50
113.2505105143
 51
151.5749733145
  0
LINE
  8
Layer0$C$L0
 62
     3
 10
-122.6116614424
 20
128.4668458128
 11
-125.1212797795
 21
128.4668458128
  0
LINE
  8
Layer0$C$L0
 62
     3
 10
-125.1212797795
 20
128.7097246559
 11
-122.6116614424
 21
128.7097246559
  0
LINE
  8
Layer0$C$L0
 62
     3
 10
-125.1212797795
 20
128.2559203854
 11
-122.6116614424
 21
128.2559203854
  0
LINE
  8
Layer0$C$L0
 62
     3
 10
-125.3915850234
 20
128.4188666363
 11
-125.3927253902
 21
128.4233804092
  0
LINE
  8
Layer0$C$L0
 62
     3
 10
-125.1635002256
 20
128.1994508446
 11
-122.6116614424
 21
128.1994508446
  0
LINE
  8
Layer0$C$L0
 62
     3
 10
-125.1212797795
 20
127.9826150595
 11
-125.1212797795
 21
128.1900944193
  0
LINE
  8
Layer0$C$L0
 62
     3
 10
-125.3927253902
 20
128.1624558603
 11
-125.2941962014
 21
128.2087897765
  0
LINE
  8
Layer0$C$L0
 62
     3
 10
-125.1212797795
 20
128.1900944193
 11
-122.6116614424
 21
128.1900944193
  0
LINE
  8
Layer0$C$L0
 62
     3
 10
-122.6116614424
 20
127.9902342184
 11
-125.1212797795
 21
127.9902342184
  0
LINE
  8
Layer0$C$L0
 62
     3
 10
-119.6116614424
 20
150.3326152771
 11
-119.6116614424
 21
127.4326150625
  0
LINE
  8
Layer0$C$L0
 62
     3
 10
-117.1116614424
 20
151.4826151862
 11
-117.1116614424
 21
126.2826151534
  0
LINE
  8
Layer0$C$L0
 62
     3
 10
-117.2116614424
 20
151.3826153561
 11
-117.2116614424
 21
126.3826149835
  0
LINE
  8
Layer0$C$L0
 62
     3
 10
-119.0116614424
 20
151.3826153561
 11
-119.0116614424
 21
126.3826149835
  0
LINE
  8
Layer0$C$L0
 62
     3
 10
-119.7116614424
 20
130.9826151698
 11
-119.7116614424
 21
131.4826151698
  0
LINE
  8
Layer0$C$L0
 62
     3
 10
-135.3116614424
 20
131.4826151698
 11
-127.7116614424
 21
131.4826151698
  0
LINE
  8
Layer0$C$L0
 62
     3
 10
-122.6116614700
 20
131.4826151698
 11
-119.7116614424
 21
131.4826151698
  0
LINE
  8
Layer0$C$L0
 62
     3
 10
-128.2513779171
 20
137.8826151698
 11
-128.2513779171
 21
131.4826151675
  0
LINE
  8
Layer0$C$L0
 62
     3
 10
-128.5116614424
 20
137.8826151698
 11
-128.5116614424
 21
131.4826151675
  0
LINE
  8
Layer0$C$L0
 62
     3
 10
-135.5116614424
 20
131.6826151698
 11
-135.5116614424
 21
146.0826151698
  0
LINE
  8
Layer0$C$L0
 62
     3
 10
-135.3116614424
 20
146.2826151721
 11
-135.3116614424
 21
131.4826151675
  0
LINE
  8
Layer0$C$L0
 62
     3
 10
-125.3927253902
 20
128.1548760589
 11
-125.3927253902
 21
128.1624562427
  0
ARC
  8
Layer0$C$L0
 62
     3
 10
-125.3034073076
 20
131.0175792288
 40
8.9318838057E-02
 50
180.2356497533
 51
213.2028773401
  0
LINE
  8
Layer0$C$L0
 62
     3
 10
-125.2153974266
 20
129.2302445828
 11
-125.2153974266
 21
128.7180167413
  0
LINE
  8
Layer0$C$L0
 62
     3
 10
-125.2153974266
 20
128.2482375710
 11
-125.2153974266
 21
128.1993170588
  0
ARC
  8
Layer0$C$L0
 62
     3
 10
-125.3033262443
 20
131.0175909157
 40
8.9399811273E-02
 50
180.2426388915
 51
212.7834462522
  0
LINE
  8
Layer0$C$L0
 62
     3
 10
-125.3927253041
 20
128.4233804308
 11
-125.3915908674
 21
128.4188790084
  0
ARC
  8
Layer0$C$L0
 62
     3
 10
-125.1994769275
 20
129.7528377990
 40
0.1989877674
 50
118.4249196305
 51
166.2054139830
  0
LINE
  8
Layer0$C$L0
 62
     3
 10
-114.0116616436
 20
124.8826147376
 11
-114.0116616436
 21
152.8826156020
  0
LINE
  8
Layer1$C$L1
 10
-119.0116614424
 20
126.3826149836
 11
-117.2116614424
 21
126.3826149836
  0
LINE
  8
Layer1$C$L1
 10
-119.6116614424
 20
127.4326150625
 11
-119.0116614424
 21
127.4326150625
  0
LINE
  8
Layer1$C$L1
 10
-117.1116614424
 20
126.2826151534
 11
-114.5116614424
 21
126.2826151534
  0
LINE
  8
Layer1$C$L1
 10
-114.0116616436
 20
124.8826147377
 11
-113.0116614424
 21
124.8826147377
  0
LINE
  8
Layer1$C$L1
 10
-114.5116614424
 20
125.3826148196
 11
-114.0116616436
 21
124.8826147377
  0
LINE
  8
Layer1$C$L1
 10
-119.7116614424
 20
130.9826151698
 11
-119.6116614424
 21
130.9826151698
  0
LINE
  8
Layer1$C$L1
 10
-126.8116614424
 20
129.6826149657
 11
-126.1116614424
 21
129.6826149657
  0
LINE
  8
Layer1$C$L1
 10
-125.4868430372
 20
128.3626021206
 11
-126.1116614424
 21
129.6826149657
  0
LINE
  8
Layer1$C$L1
 10
-135.3116614424
 20
131.4826151698
 11
-135.5116614424
 21
131.6826151698
  0
LINE
  8
Layer1$C$L1
 10
-135.3116614424
 20
146.2826151698
 11
-135.5116614424
 21
146.0826151698
  0
LINE
  8
Layer1$C$L1
 10
-139.1116609149
 20
143.8547750323
 11
-139.1116609149
 21
143.9747750147
  0
LINE
  8
Layer1$C$L1
 10
-139.1116609149
 20
143.4826153538
 11
-139.1116609149
 21
143.6026151698
  0
LINE
  8
Layer1$C$L1
 10
-125.4868430372
 20
149.4026282190
 11
-126.1116614424
 21
148.0826153739
  0
LINE
  8
Layer1$C$L1
 10
-126.8116614424
 20
148.0826153739
 11
-126.1116614424
 21
148.0826153739
  0
LINE
  8
Layer1$C$L1
 10
-139.1116614424
 20
133.9326153539
 11
-139.1116614424
 21
134.1326151652
  0
LINE
  8
Layer1$C$L1
 10
-119.7116614424
 20
146.7826151698
 11
-119.6116614424
 21
146.7826151698
  0
LINE
  8
Layer1$C$L1
 10
-114.5116614424
 20
152.3826155200
 11
-114.0116616436
 21
152.8826156019
  0
LINE
  8
Layer1$C$L1
 10
-114.0116616436
 20
152.8826156019
 11
-113.0116614424
 21
152.8826156019
  0
LINE
  8
Layer1$C$L1
 10
-117.1116614424
 20
151.4826151862
 11
-114.5116614424
 21
151.4826151862
  0
LINE
  8
Layer1$C$L1
 10
-119.6116614424
 20
150.3326152771
 11
-119.0116614424
 21
150.3326152771
  0
LINE
  8
Layer1$C$L1
 10
-119.0116614424
 20
151.3826153560
 11
-117.2116614424
 21
151.3826153560
  0
LINE
  8
Layer0$C$L0
 62
     3
 10
-139.1116609149
 20
143.8547750323
 11
-138.6864853773
 21
143.8547750323
  0
LINE
  8
Layer0$C$L0
 62
     3
 10
-135.5116614424
 20
143.9747750147
 11
-139.1116609149
 21
143.9747750147
  0
LINE
  8
Layer0$C$L0
 62
     3
 10
-138.6864854657
 20
61.0292788899
 11
-138.6864854657
 21
61.1292787200
  0
LINE
  8
Layer0$C$L0
 62
     3
 10
-138.6864854657
 20
61.1292787200
 11
-135.5116608255
 21
61.1292787200
  0
LINE
  8
Layer0$C$L0
 62
     3
 10
-135.5116608255
 20
58.3292787035
 11
-138.6864854657
 21
58.3292787035
  0
LINE
  8
Layer0$C$L0
 62
     3
 10
-138.6864854657
 20
58.3292787035
 11
-138.6864854657
 21
58.4292786500
  0
LINE
  8
Layer0$C$L0
 62
     3
 10
-138.6087163054
 20
61.1292787200
 11
-138.6087163054
 21
58.3292787035
  0
ARC
  8
Layer0$C$L0
 62
     3
 10
-136.9116609149
 20
59.7292786999
 40
2.2000000000
 50
140.4788036414
 51
219.5211963586
  0
ARC
  8
Layer0$C$L0
 62
     3
 10
-137.7116609149
 20
59.7292786999
 40
0.6000000000
 50
90.0000000000
 51
270.0000000000
  0
LINE
  8
Layer0$C$L0
 62
     3
 10
-137.7116608136
 20
59.1292786251
 11
-136.3116613292
 21
59.1292786251
  0
ARC
  8
Layer0$C$L0
 62
     3
 10
-136.3116609149
 20
59.7292786999
 40
0.6000000000
 50
270.0000000000
 51
450.0000000000
  0
LINE
  8
Layer0$C$L0
 62
     3
 10
-136.3116613292
 20
60.3292786821
 11
-137.7116608136
 21
60.3292786821
  0
ARC
  8
Layer0$C$L0
 62
     3
 10
-125.1994763106
 20
66.1590560707
 40
0.1989877674
 50
193.7945860170
 51
241.5750803695
  0
LINE
  8
Layer0$C$L0
 62
     3
 10
-125.3927246370
 20
67.4885136380
 11
-125.3915902861
 21
67.4930147200
  0
ARC
  8
Layer0$C$L0
 62
     3
 10
-125.2572145593
 20
51.3194856246
 40
0.1355111198
 50
179.7752992260
 51
221.8598523748
  0
ARC
  8
Layer0$C$L0
 62
     3
 10
-125.2582154695
 20
62.7394407247
 40
0.1345121810
 50
137.7189821104
 51
180.3835266604
  0
ARC
  8
Layer0$C$L0
 62
     3
 10
-125.3034142033
 20
49.1642407522
 40
8.9311179118E-02
 50
180.2340947113
 51
213.2043245707
  0
ARC
  8
Layer0$C$L0
 62
     3
 10
-125.3033256274
 20
64.8943029540
 40
8.9399811273E-02
 50
147.2165537478
 51
179.7573611085
  0
LINE
  8
Layer0$C$L0
 62
     3
 10
-133.0116619639
 20
138.1624712695
 11
-132.4116611205
 21
138.1624712695
  0
LINE
  8
Layer0$C$L0
 62
     3
 10
-132.4116611205
 20
139.6027590700
 11
-133.0116619639
 21
139.6027590700
  0
LINE
  8
Layer0$C$L0
 62
     3
 10
-132.4116611205
 20
138.1624712695
 11
-132.4116611205
 21
139.6027590700
  0
LINE
  8
Layer0$C$L0
 62
     3
 10
-131.5116617181
 20
139.7826151543
 11
-131.5116617181
 21
137.9826151852
  0
LINE
  8
Layer0$C$L0
 62
     3
 10
-133.0116619639
 20
139.7826151543
 11
-131.5116617181
 21
139.7826151543
  0
LINE
  8
Layer0$C$L0
 62
     3
 10
-131.5116617181
 20
137.9826151852
 11
-133.0116619639
 21
137.9826151852
  0
ARC
  8
Layer0$C$L0
 62
     3
 10
-125.1994769275
 20
148.0123925406
 40
0.1989877674
 50
193.7945860170
 51
241.5750803695
  0
LINE
  8
Layer0$C$L0
 62
     3
 10
-125.3927252539
 20
149.3418501078
 11
-125.3915909030
 21
149.3463511898
  0
LINE
  8
Layer0$C$L0
 62
     3
 10
-121.5116614759
 20
138.0326151585
 11
-119.6116615603
 21
138.0326151585
  0
LINE
  8
Layer0$C$L0
 62
     3
 10
-121.5116614759
 20
137.8826151223
 11
-121.5116614759
 21
139.8826152173
  0
LINE
  8
Layer0$C$L0
 62
     3
 10
-121.5116614759
 20
139.7326151810
 11
-119.6116615603
 21
139.7326151810
  0
LINE
  8
Layer0$C$L0
 62
     3
 10
-121.5116614759
 20
139.8826152173
 11
-122.6116614700
 21
139.8826152173
  0
LINE
  8
Layer0$C$L0
 62
     3
 10
-121.5116614759
 20
137.8826151223
 11
-122.6116614700
 21
137.8826151223
  0
LINE
  8
Layer0$C$L0
 62
     3
 10
-133.0116619639
 20
137.4826152197
 11
-133.0116619639
 21
140.2826151199
  0
LINE
  8
Layer0$C$L0
 62
     3
 10
-131.4116618880
 20
137.4826152197
 11
-133.0116619639
 21
137.4826152197
  0
LINE
  8
Layer0$C$L0
 62
     3
 10
-131.4116618880
 20
140.2826151199
 11
-131.4116618880
 21
137.4826152197
  0
LINE
  8
Layer0$C$L0
 62
     3
 10
-133.0116619639
 20
140.2826151199
 11
-131.4116618880
 21
140.2826151199
  0
ARC
  8
Layer0$C$L0
 62
     3
 10
-125.2572151762
 20
133.1728220945
 40
0.1355111198
 50
179.7752992260
 51
221.8598523748
  0
ARC
  8
Layer0$C$L0
 62
     3
 10
-125.2582160864
 20
144.5927771946
 40
0.1345121810
 50
137.7189821105
 51
180.3835266604
  0
ARC
  8
Layer0$C$L0
 62
     3
 10
-125.3034148202
 20
131.0175772220
 40
8.9311179118E-02
 50
180.2340947113
 51
213.2043245707
  0
ARC
  8
Layer0$C$L0
 62
     3
 10
-125.3033262443
 20
146.7476394239
 40
8.9399811273E-02
 50
147.2165537478
 51
179.7573611085
  0
LINE
  8
Layer0$C$L0
 62
     3
 10
-125.2153974266
 20
149.5169930081
 11
-125.2153974266
 21
149.5659132807
  0
LINE
  8
Layer0$C$L0
 62
     3
 10
-125.2153974266
 20
148.5349857568
 11
-125.2153974266
 21
149.0472135982
  0
ARC
  8
Layer0$C$L0
 62
     3
 10
-125.3033233635
 20
131.0175921024
 40
8.9402835235E-02
 50
180.2436788076
 51
212.7831855963
  0
ARC
  8
Layer0$C$L0
 62
     3
 10
-125.3034073076
 20
146.7476511108
 40
8.9318838057E-02
 50
146.7971226599
 51
179.7643502467
  0
ARC
  8
Layer0$C$L0
 62
     3
 10
-125.2582138282
 20
133.1724544615
 40
0.1345145662
 50
179.6170729166
 51
222.2808005129
  0
ARC
  8
Layer0$C$L0
 62
     3
 10
-125.2572133101
 20
144.5924070974
 40
0.1355131174
 50
138.1403347398
 51
180.2241804636
  0
LINE
  8
Layer0$C$L0
 62
     3
 10
-125.3927253902
 20
149.6103542807
 11
-125.3927253902
 21
149.6027740969
  0
LINE
  8
Layer0$C$L0
 62
     3
 10
-135.5116614424
 20
143.6826151698
 11
-138.6864860826
 21
143.6826151698
  0
LINE
  8
Layer0$C$L0
 62
     3
 10
-138.6864860826
 20
143.7747749877
 11
-135.5116614424
 21
143.7747749877
  0
LINE
  8
Layer0$C$L0
 62
     3
 10
-128.5116614424
 20
139.8826151698
 11
-128.5116614424
 21
146.2826151720
  0
LINE
  8
Layer0$C$L0
 62
     3
 10
-126.8116613202
 20
137.8826151698
 11
-128.5116614424
 21
137.8826151698
  0
LINE
  8
Layer0$C$L0
 62
     3
 10
-126.8116613202
 20
139.8826151698
 11
-128.5116614424
 21
139.8826151698
  0
LINE
  8
Layer0$C$L0
 62
     3
 10
-128.2513779171
 20
139.8826151698
 11
-128.2513779171
 21
146.2826151720
  0
LINE
  8
Layer0$C$L0
 62
     3
 10
-122.6116614700
 20
146.2826151698
 11
-119.7116614424
 21
146.2826151698
  0
LINE
  8
Layer0$C$L0
 62
     3
 10
-135.3116614424
 20
146.2826151698
 11
-127.7116614424
 21
146.2826151698
  0
LINE
  8
Layer0$C$L0
 62
     3
 10
-119.7116614424
 20
146.7826151698
 11
-119.7116614424
 21
146.2826151698
  0
LINE
  8
Layer0$C$L0
 62
     3
 10
-122.6116614424
 20
149.7749961212
 11
-125.1212797795
 21
149.7749961212
  0
LINE
  8
Layer0$C$L0
 62
     3
 10
-125.1212797795
 20
149.5751359203
 11
-122.6116614424
 21
149.5751359203
  0
LINE
  8
Layer0$C$L0
 62
     3
 10
-125.3927253902
 20
149.6027744793
 11
-125.2941962014
 21
149.5564405631
  0
LINE
  8
Layer0$C$L0
 62
     3
 10
-125.1212797795
 20
149.7826152800
 11
-125.1212797795
 21
149.5751359203
  0
LINE
  8
Layer0$C$L0
 62
     3
 10
-125.1635002256
 20
149.5657794950
 11
-122.6116614424
 21
149.5657794950
  0
LINE
  8
Layer0$C$L0
 62
     3
 10
-125.3915850234
 20
149.3463637033
 11
-125.3927253902
 21
149.3418499304
  0
LINE
  8
Layer0$C$L0
 62
     3
 10
-125.1212797795
 20
149.5093099542
 11
-122.6116614424
 21
149.5093099542
  0
LINE
  8
Layer0$C$L0
 62
     3
 10
-125.1212797795
 20
149.0555056837
 11
-122.6116614424
 21
149.0555056837
  0
LINE
  8
Layer0$C$L0
 62
     3
 10
-122.6116614424
 20
149.2983845268
 11
-125.1212797795
 21
149.2983845268
  0
ARC
  8
Layer0$C$L0
 62
     3
 10
-125.2139494230
 20
149.2299032860
 40
0.2032840103
 50
208.4250266855
 51
246.7494894857
  0
LINE
  8
Layer0$C$L0
 62
     3
 10
-125.1212797795
 20
149.5143247288
 11
-125.1212797795
 21
149.0555056690
  0
LINE
  8
Layer0$C$L0
 62
     3
 10
-125.1635002256
 20
149.0464680709
 11
-122.6116614424
 21
149.0464680709
  0
LINE
  8
Layer0$C$L0
 62
     3
 10
-125.1212797795
 20
148.5194320992
 11
-122.6116614424
 21
148.5194320992
  0
LINE
  8
Layer0$C$L0
 62
     3
 10
-125.1212797795
 20
147.8426097702
 11
-122.6116614424
 21
147.8426097702
  0
LINE
  8
Layer0$C$L0
 62
     3
 10
-122.6116614424
 20
148.1119554637
 11
-125.1212797795
 21
148.1119554637
  0
ARC
  8
Layer0$C$L0
 62
     3
 10
-125.1994748731
 20
148.0123942893
 40
0.1989904189
 50
193.7950501103
 51
241.5749016465
  0
LINE
  8
Layer0$C$L0
 62
     3
 10
-125.1212797795
 20
148.5426067694
 11
-125.1212797795
 21
147.8426097702
  0
LINE
  8
Layer0$C$L0
 62
     3
 10
-125.1635002256
 20
147.8345068682
 11
-122.6116614424
 21
147.8345068682
  0
LINE
  8
Layer0$C$L0
 62
     3
 10
-125.2153974266
 20
146.8594271395
 11
-125.2153974266
 21
147.8358139603
  0
LINE
  8
Layer0$C$L0
 62
     3
 10
-125.1212797795
 20
146.8728210959
 11
-122.6116614424
 21
146.8728210959
  0
LINE
  8
Layer0$C$L0
 62
     3
 10
-125.1212797795
 20
146.0191050317
 11
-122.6116614424
 21
146.0191050317
  0
LINE
  8
Layer0$C$L0
 62
     3
 10
-122.6116614424
 20
146.2965621116
 11
-125.1212797795
 21
146.2965621116
  0
ARC
  8
Layer0$C$L0
 62
     3
 10
-125.1767875593
 20
146.2046075478
 40
0.2175946685
 50
187.0750138301
 51
237.3452884237
  0
LINE
  8
Layer0$C$L0
 62
     3
 10
-125.1212797795
 20
146.9262098282
 11
-125.1212797795
 21
146.0191049001
  0
LINE
  8
Layer0$C$L0
 62
     3
 10
-125.1635002256
 20
146.0124890399
 11
-122.6116614424
 21
146.0124890399
  0
LINE
  8
Layer0$C$L0
 62
     3
 10
-125.2153974266
 20
144.7418163106
 11
-125.2153974266
 21
146.0142680763
  0
LINE
  8
Layer0$C$L0
 62
     3
 10
-126.8116613202
 20
135.8826151698
 11
-127.7116616540
 21
135.8826151698
  0
LINE
  8
Layer0$C$L0
 62
     3
 10
-126.8116614424
 20
141.8826151959
 11
-126.8116614424
 21
135.8826151437
  0
LINE
  8
Layer0$C$L0
 62
     3
 10
-126.8116613202
 20
141.8826151698
 11
-127.7116616540
 21
141.8826151698
  0
LINE
  8
Layer0$C$L0
 62
     3
 10
-127.7116614424
 20
147.5797412305
 11
-127.7116614424
 21
141.8826151698
  0
LINE
  8
Layer0$C$L0
 62
     3
 10
-126.8116613202
 20
147.5797411318
 11
-127.7116616540
 21
147.5797411318
  0
LINE
  8
Layer0$C$L0
 62
     3
 10
-126.8116614424
 20
148.0826153739
 11
-126.8116614424
 21
147.5797411318
  0
LINE
  8
Layer0$C$L0
 62
     3
 10
-122.6116614424
 20
133.0835395762
 11
-125.1212797795
 21
133.0835395762
  0
LINE
  8
Layer0$C$L0
 62
     3
 10
-125.1212797795
 20
144.6816907633
 11
-122.6116614424
 21
144.6816907633
  0
LINE
  8
Layer0$C$L0
 62
     3
 10
-125.1212797795
 20
133.7893098118
 11
-122.6116614424
 21
133.7893098118
  0
LINE
  8
Layer0$C$L0
 62
     3
 10
-122.6116614424
 20
134.0559700368
 11
-125.1212797795
 21
134.0559700368
  0
LINE
  8
Layer0$C$L0
 62
     3
 10
-125.1212797795
 20
134.0559702686
 11
-125.1212797795
 21
132.9899490973
  0
ARC
  8
Layer0$C$L0
 62
     3
 10
-125.1642155433
 20
133.8578571451
 40
0.2289298178
 50
124.5952243913
 51
176.5290749929
  0
LINE
  8
Layer0$C$L0
 62
     3
 10
-125.1212797795
 20
143.7092603027
 11
-122.6116614424
 21
143.7092603027
  0
LINE
  8
Layer0$C$L0
 62
     3
 10
-122.6116614424
 20
143.9759205277
 11
-125.1212797795
 21
143.9759205277
  0
ARC
  8
Layer0$C$L0
 62
     3
 10
-125.1642155433
 20
143.9073731944
 40
0.2289298178
 50
183.4709250071
 51
235.4047756087
  0
LINE
  8
Layer0$C$L0
 62
     3
 10
-125.1212797795
 20
144.7752812265
 11
-125.1212797795
 21
143.7092600710
  0
LINE
  8
Layer0$C$L0
 62
     3
 10
-125.1635002256
 20
134.0606482494
 11
-122.6116614424
 21
134.0606482494
  0
LINE
  8
Layer0$C$L0
 62
     3
 10
-125.1635002256
 20
143.7045820901
 11
-122.6116614424
 21
143.7045820901
  0
LINE
  8
Layer0$C$L0
 62
     3
 10
-125.2153974266
 20
134.0585183672
 11
-125.2153974266
 21
135.5403197326
  0
LINE
  8
Layer0$C$L0
 62
     3
 10
-125.2153974266
 20
142.2249106069
 11
-125.2153974266
 21
143.7067119724
  0
ARC
  8
Layer0$C$L0
 62
     3
 10
-125.2240942066
 20
135.7150816228
 40
0.1686672980
 50
178.8142418606
 51
245.4414491895
  0
ARC
  8
Layer0$C$L0
 62
     3
 10
-125.2240942066
 20
142.0501487167
 40
0.1686672980
 50
114.5585508105
 51
181.1857581394
  0
LINE
  8
Layer0$C$L0
 62
     3
 10
-122.6116614424
 20
135.6698673272
 11
-125.1212797795
 21
135.6698673272
  0
LINE
  8
Layer0$C$L0
 62
     3
 10
-125.1212797795
 20
142.0953630124
 11
-122.6116614424
 21
142.0953630124
  0
LINE
  8
Layer0$C$L0
 62
     3
 10
-122.6116614424
 20
127.9826150595
 11
-122.6116614424
 21
149.7826152800
  0
LINE
  8
Layer0$C$L0
 62
     3
 10
-125.1212797795
 20
136.4570517389
 11
-122.6116614424
 21
136.4570517389
  0
LINE
  8
Layer0$C$L0
 62
     3
 10
-122.6116614424
 20
136.6947426551
 11
-125.1212797795
 21
136.6947426551
  0
LINE
  8
Layer0$C$L0
 62
     3
 10
-125.1212797795
 20
141.0704876844
 11
-122.6116614424
 21
141.0704876844
  0
LINE
  8
Layer0$C$L0
 62
     3
 10
-122.6116614424
 20
141.3081786006
 11
-125.1212797795
 21
141.3081786006
  0
ARC
  8
Layer0$C$L0
 62
     3
 10
-125.1684096000
 20
141.2726450824
 40
0.2243695314
 50
181.2539396027
 51
235.9011432304
  0
LINE
  8
Layer0$C$L0
 62
     3
 10
-125.1212797795
 20
142.2364135072
 11
-125.1212797795
 21
141.0704876844
  0
LINE
  8
Layer0$C$L0
 62
     3
 10
-125.1212797795
 20
136.6947426551
 11
-125.1212797795
 21
135.5288168735
  0
ARC
  8
Layer0$C$L0
 62
     3
 10
-125.1684096000
 20
136.4925852571
 40
0.2243695314
 50
124.0988567696
 51
178.7460603973
  0
LINE
  8
Layer0$C$L0
 62
     3
 10
-125.1635002256
 20
136.6971642762
 11
-122.6116614424
 21
136.6971642762
  0
LINE
  8
Layer0$C$L0
 62
     3
 10
-125.1635002256
 20
141.0680660633
 11
-122.6116614424
 21
141.0680660633
  0
LINE
  8
Layer0$C$L0
 62
     3
 10
-125.2153974266
 20
139.4802329915
 11
-125.2153974266
 21
141.0704016285
  0
LINE
  8
Layer0$C$L0
 62
     3
 10
-125.2153974266
 20
136.6948287110
 11
-125.2153974266
 21
138.2849973480
  0
LINE
  8
Layer0$C$L0
 62
     3
 10
-125.4868430372
 20
143.7933864569
 11
-125.4868430372
 21
141.9949159345
  0
LINE
  8
Layer0$C$L0
 62
     3
 10
-125.3927253902
 20
142.0466585870
 11
-125.3927253902
 21
141.2677345910
  0
LINE
  8
Layer0$C$L0
 62
     3
 10
-125.4868430372
 20
141.2158736813
 11
-125.4868430372
 21
139.2858771752
  0
LINE
  8
Layer0$C$L0
 62
     3
 10
-125.4868430372
 20
138.4793531644
 11
-125.4868430372
 21
136.5493566583
  0
LINE
  8
Layer0$C$L0
 62
     3
 10
-125.3927253902
 20
136.4974957485
 11
-125.3927253902
 21
135.7185717526
  0
LINE
  8
Layer0$C$L0
 62
     3
 10
-125.4868430372
 20
135.7703144050
 11
-125.4868430372
 21
133.9718438826
  0
LINE
  8
Layer0$C$L0
 62
     3
 10
-125.3927253902
 20
133.8717175687
 11
-125.3927253902
 21
133.1733534612
  0
LINE
  8
Layer0$C$L0
 62
     3
 10
-125.4868430372
 20
149.4026282190
 11
-125.4868430372
 21
149.1485391700
  0
LINE
  8
Layer0$C$L0
 62
     3
 10
-125.3927253902
 20
149.3418501078
 11
-125.3927253902
 21
149.1331378872
  0
LINE
  8
Layer0$C$L0
 62
     3
 10
-125.4868430372
 20
148.9397953951
 11
-125.4868430372
 21
148.1948444008
  0
LINE
  8
Layer0$C$L0
 62
     3
 10
-125.3927253902
 20
148.3681458368
 11
-125.3927253902
 21
147.9649451117
  0
LINE
  8
Layer0$C$L0
 62
     3
 10
-125.4868430372
 20
147.7915826573
 11
-125.4868430372
 21
146.6065368995
  0
LINE
  8
Layer0$C$L0
 62
     3
 10
-125.3927253902
 20
146.7480184660
 11
-125.3927253902
 21
146.1778064578
  0
LINE
  8
Layer0$C$L0
 62
     3
 10
-125.4868430372
 20
146.0362384415
 11
-125.4868430372
 21
144.4918567410
  0
LINE
  8
Layer0$C$L0
 62
     3
 10
-125.3927253902
 20
144.5918768783
 11
-125.3927253902
 21
143.8935127708
  0
LINE
  8
Layer0$C$L0
 62
     3
 10
-125.1212797795
 20
138.2826151698
 11
-122.6116614424
 21
138.2826151698
  0
LINE
  8
Layer0$C$L0
 62
     3
 10
-122.6116614424
 20
139.4826151698
 11
-125.1212797795
 21
139.4826151698
  0
LINE
  8
Layer0$C$L0
 62
     3
 10
-122.6116614424
 20
138.4751385342
 11
-125.1212797795
 21
138.4751385342
  0
LINE
  8
Layer0$C$L0
 62
     3
 10
-125.1212797795
 20
139.2900918053
 11
-122.6116614424
 21
139.2900918053
  0
ARC
  8
Layer0$C$L0
 62
     3
 10
-125.1898869921
 20
138.4785300927
 40
0.2028403260
 50
179.7500977118
 51
239.0531333236
  0
ARC
  8
Layer0$C$L0
 62
     3
 10
-125.1898869921
 20
139.2867002468
 40
0.2028403260
 50
120.9468666764
 51
180.2499022882
  0
LINE
  8
Layer0$C$L0
 62
     3
 10
-125.1212797795
 20
138.2826151413
 11
-125.1212797795
 21
139.4826151983
  0
LINE
  8
Layer0$C$L0
 62
     3
 10
-125.3927253902
 20
139.2858158825
 11
-125.3927253902
 21
138.4794144570
  0
LINE
  8
Layer0$C$L0
 62
     3
 10
-135.5116614424
 20
134.2826151698
 11
-138.6087177172
 21
134.2826151698
  0
LINE
  8
Layer0$C$L0
 62
     3
 10
-135.5116614424
 20
133.7826151698
 11
-138.6087177172
 21
133.7826151698
  0
LINE
  8
Layer0$C$L0
 62
     3
 10
-138.6087177172
 20
134.2826151698
 11
-139.1116614424
 21
134.1326151698
  0
LINE
  8
Layer0$C$L0
 62
     3
 10
-138.6087177172
 20
133.7826149858
 11
-138.6087177172
 21
134.2826151698
  0
LINE
  8
Layer0$C$L0
 62
     3
 10
-139.1116614424
 20
133.9326151698
 11
-138.6087177172
 21
133.7826151698
  0
LINE
  8
Layer0$C$L0
 62
     3
 10
-138.6864853773
 20
143.6026151698
 11
-139.1116614424
 21
143.6026151698
  0
LINE
  8
Layer0$C$L0
 62
     3
 10
-139.1116614424
 20
143.4826151698
 11
-135.5116614424
 21
143.4826151698
  0
LINE
  8
Layer0$C$L0
 62
     3
 10
-138.6864853773
 20
143.9747750147
 11
-138.6864853773
 21
143.4826153538
  0
ARC
  8
Layer0$C$L0
 62
     3
 10
-125.1212797795
 20
149.4826151698
 40
0.3000000000
 50
90.0000000000
 51
154.7988763545
  0
LINE
  8
Layer0$C$L0
 62
     3
 10
-125.2153968097
 20
67.6636565382
 11
-125.2153968097
 21
67.7125768109
  0
LINE
  8
Layer0$C$L0
 62
     3
 10
-125.2153968097
 20
66.6816492869
 11
-125.2153968097
 21
67.1938771283
  0
ARC
  8
Layer0$C$L0
 62
     3
 10
-125.3033227467
 20
49.1642556325
 40
8.9402835235E-02
 50
180.2436788076
 51
212.7831855963
  0
ARC
  8
Layer0$C$L0
 62
     3
 10
-125.3034066907
 20
64.8943146409
 40
8.9318838057E-02
 50
146.7971226599
 51
179.7643502466
  0
ARC
  8
Layer0$C$L0
 62
     3
 10
-125.2582132113
 20
51.3191179917
 40
0.1345145662
 50
179.6170729166
 51
222.2808005129
  0
ARC
  8
Layer0$C$L0
 62
     3
 10
-125.2572126932
 20
62.7390706275
 40
0.1355131174
 50
138.1403347399
 51
180.2241804636
  0
LINE
  8
Layer0$C$L0
 62
     3
 10
-125.3927247733
 20
67.7570178108
 11
-125.3927247733
 21
67.7494376271
  0
LINE
  8
Layer0$C$L0
 62
     3
 10
-121.5116608591
 20
66.0651994093
 11
-119.6116608255
 21
66.0651994093
  0
LINE
  8
Layer0$C$L0
 62
     3
 10
-133.0116608255
 20
64.2956395497
 11
-131.4116608255
 21
64.2956395497
  0
LINE
  8
Layer0$C$L0
 62
     3
 10
-131.4116608255
 20
64.2956395497
 11
-131.4116608255
 21
64.4292787022
  0
LINE
  8
Layer0$C$L0
 62
     3
 10
-133.0116608255
 20
64.4292787022
 11
-133.0116608255
 21
64.2956395497
  0
LINE
  8
Layer0$C$L0
 62
     3
 10
-121.5116608591
 20
64.8834177361
 11
-119.6116608255
 21
64.8834177361
  0
LINE
  8
Layer0$C$L0
 62
     3
 10
-119.7116608255
 20
49.1292786999
 11
-119.7116608255
 21
49.1928254205
  0
LINE
  8
Layer0$C$L0
 62
     3
 10
-119.7116608255
 20
49.1928254205
 11
-122.6116608531
 21
49.1928254205
  0
LINE
  8
Layer0$C$L0
 62
     3
 10
-122.6116608531
 20
54.2634153627
 11
-119.7116608255
 21
54.2634153627
  0
LINE
  8
Layer0$C$L0
 62
     3
 10
-128.2513773703
 20
54.2634153627
 11
-126.8116607033
 21
54.2634153627
  0
LINE
  8
Layer0$C$L0
 62
     3
 10
-119.7116608255
 20
59.7951421353
 11
-119.7116608255
 21
54.2634152646
  0
LINE
  8
Layer0$C$L0
 62
     3
 10
-122.6116608531
 20
59.7951420370
 11
-119.7116608255
 21
59.7951420370
  0
LINE
  8
Layer0$C$L0
 62
     3
 10
-128.2513773703
 20
59.7951420370
 11
-126.8116607033
 21
59.7951420370
  0
LINE
  8
Layer0$C$L0
 62
     3
 10
-128.2513773003
 20
59.7951420370
 11
-128.2513773003
 21
64.8657323166
  0
LINE
  8
Layer0$C$L0
 62
     3
 10
-127.7116608255
 20
64.8657319792
 11
-128.2513773703
 21
64.8657319792
  0
LINE
  8
Layer0$C$L0
 62
     3
 10
-121.5116608255
 20
64.8657319792
 11
-122.6116608531
 21
64.8657319792
  0
LINE
  8
Layer0$C$L0
 62
     3
 10
-121.5116608255
 20
66.3292787342
 11
-121.5116608255
 21
64.8657319792
  0
LINE
  8
Layer0$C$L0
 62
     3
 10
-125.1212791627
 20
67.7217994504
 11
-122.6116608255
 21
67.7217994504
  0
LINE
  8
Layer0$C$L0
 62
     3
 10
-122.6116608255
 20
67.9216596513
 11
-125.1212791627
 21
67.9216596513
  0
LINE
  8
Layer0$C$L0
 62
     3
 10
-125.3927247733
 20
67.7494380094
 11
-125.2941955846
 21
67.7031040932
  0
LINE
  8
Layer0$C$L0
 62
     3
 10
-125.1212791627
 20
67.9292788102
 11
-125.1212791627
 21
67.7217994504
  0
LINE
  8
Layer0$C$L0
 62
     3
 10
-125.1634996087
 20
67.7124430251
 11
-122.6116608255
 21
67.7124430251
  0
LINE
  8
Layer0$C$L0
 62
     3
 10
-125.3915844066
 20
67.4930272334
 11
-125.3927247733
 21
67.4885134605
  0
LINE
  8
Layer0$C$L0
 62
     3
 10
-125.1212791627
 20
67.6559734844
 11
-122.6116608255
 21
67.6559734844
  0
LINE
  8
Layer0$C$L0
 62
     3
 10
-125.1212791627
 20
67.2021692138
 11
-122.6116608255
 21
67.2021692138
  0
LINE
  8
Layer0$C$L0
 62
     3
 10
-122.6116608255
 20
67.4450480569
 11
-125.1212791627
 21
67.4450480569
  0
ARC
  8
Layer0$C$L0
 62
     3
 10
-125.2139488062
 20
67.3765668162
 40
0.2032840103
 50
208.4250266855
 51
246.7494894857
  0
LINE
  8
Layer0$C$L0
 62
     3
 10
-125.1212791627
 20
67.6609882589
 11
-125.1212791627
 21
67.2021691992
  0
LINE
  8
Layer0$C$L0
 62
     3
 10
-125.1634996087
 20
67.1931316010
 11
-122.6116608255
 21
67.1931316010
  0
LINE
  8
Layer0$C$L0
 62
     3
 10
-125.1212791627
 20
66.6660956293
 11
-122.6116608255
 21
66.6660956293
  0
LINE
  8
Layer0$C$L0
 62
     3
 10
-125.1212791627
 20
65.9892733003
 11
-122.6116608255
 21
65.9892733003
  0
LINE
  8
Layer0$C$L0
 62
     3
 10
-122.6116608255
 20
66.2586189938
 11
-125.1212791627
 21
66.2586189938
  0
ARC
  8
Layer0$C$L0
 62
     3
 10
-125.1994742562
 20
66.1590578194
 40
0.1989904189
 50
193.7950501102
 51
241.5749016466
  0
LINE
  8
Layer0$C$L0
 62
     3
 10
-125.1212791627
 20
66.6892702996
 11
-125.1212791627
 21
65.9892733003
  0
LINE
  8
Layer0$C$L0
 62
     3
 10
-125.1634996087
 20
65.9811703983
 11
-122.6116608255
 21
65.9811703983
  0
LINE
  8
Layer0$C$L0
 62
     3
 10
-125.2153968098
 20
65.0060906696
 11
-125.2153968097
 21
65.9824774905
  0
LINE
  8
Layer0$C$L0
 62
     3
 10
-125.1212791627
 20
65.0194846260
 11
-122.6116608255
 21
65.0194846260
  0
LINE
  8
Layer0$C$L0
 62
     3
 10
-125.1212791627
 20
64.1657685618
 11
-122.6116608255
 21
64.1657685618
  0
LINE
  8
Layer0$C$L0
 62
     3
 10
-122.6116608255
 20
64.4432256418
 11
-125.1212791627
 21
64.4432256418
  0
ARC
  8
Layer0$C$L0
 62
     3
 10
-125.1767869425
 20
64.3512710780
 40
0.2175946685
 50
187.0750138301
 51
237.3452884237
  0
LINE
  8
Layer0$C$L0
 62
     3
 10
-125.1212791627
 20
65.0728733583
 11
-125.1212791627
 21
64.1657684303
  0
LINE
  8
Layer0$C$L0
 62
     3
 10
-125.1634996087
 20
64.1591525701
 11
-122.6116608255
 21
64.1591525701
  0
LINE
  8
Layer0$C$L0
 62
     3
 10
-125.2153968098
 20
62.8884798407
 11
-125.2153968097
 21
64.1609316065
  0
LINE
  8
Layer0$C$L0
 62
     3
 10
-126.8116607033
 20
54.0292786999
 11
-127.7116610371
 21
54.0292786999
  0
LINE
  8
Layer0$C$L0
 62
     3
 10
-126.8116608255
 20
60.0292787260
 11
-126.8116608255
 21
54.0292786739
  0
LINE
  8
Layer0$C$L0
 62
     3
 10
-126.8116607033
 20
60.0292786999
 11
-127.7116610371
 21
60.0292786999
  0
LINE
  8
Layer0$C$L0
 62
     3
 10
-122.6116608255
 20
51.2302031063
 11
-125.1212791627
 21
51.2302031063
  0
LINE
  8
Layer0$C$L0
 62
     3
 10
-125.1212791627
 20
62.8283542934
 11
-122.6116608255
 21
62.8283542934
  0
LINE
  8
Layer0$C$L0
 62
     3
 10
-125.1212791627
 20
51.9359733419
 11
-122.6116608255
 21
51.9359733419
  0
LINE
  8
Layer0$C$L0
 62
     3
 10
-122.6116608255
 20
52.2026335669
 11
-125.1212791627
 21
52.2026335669
  0
LINE
  8
Layer0$C$L0
 62
     3
 10
-125.1212791627
 20
52.2026337987
 11
-125.1212791627
 21
51.1366126274
  0
ARC
  8
Layer0$C$L0
 62
     3
 10
-125.1642149265
 20
52.0045206752
 40
0.2289298178
 50
124.5952243913
 51
176.5290749929
  0
ARC
  8
Layer0$C$L0
 62
     3
 10
-125.1642149265
 20
62.0540367245
 40
0.2289298178
 50
183.4709250071
 51
235.4047756087
  0
LINE
  8
Layer0$C$L0
 62
     3
 10
-125.1212791627
 20
61.8559238328
 11
-122.6116608255
 21
61.8559238328
  0
LINE
  8
Layer0$C$L0
 62
     3
 10
-125.1212791627
 20
62.9219447567
 11
-125.1212791627
 21
61.8559236011
  0
LINE
  8
Layer0$C$L0
 62
     3
 10
-122.6116608255
 20
62.1225840578
 11
-125.1212791627
 21
62.1225840578
  0
LINE
  8
Layer0$C$L0
 62
     3
 10
-125.1634996087
 20
52.2073117795
 11
-122.6116608255
 21
52.2073117795
  0
LINE
  8
Layer0$C$L0
 62
     3
 10
-125.1634996087
 20
61.8512456202
 11
-122.6116608255
 21
61.8512456202
  0
LINE
  8
Layer0$C$L0
 62
     3
 10
-125.2153968098
 20
52.2051818973
 11
-125.2153968097
 21
53.6869832628
  0
LINE
  8
Layer0$C$L0
 62
     3
 10
-125.2153968098
 20
60.3715741370
 11
-125.2153968097
 21
61.8533755026
  0
ARC
  8
Layer0$C$L0
 62
     3
 10
-125.2240935898
 20
53.8617451529
 40
0.1686672980
 50
178.8142418606
 51
245.4414491895
  0
ARC
  8
Layer0$C$L0
 62
     3
 10
-125.2240935898
 20
60.1968122468
 40
0.1686672980
 50
114.5585508105
 51
181.1857581394
  0
LINE
  8
Layer0$C$L0
 62
     3
 10
-122.6116608255
 20
53.8165308573
 11
-125.1212791627
 21
53.8165308573
  0
LINE
  8
Layer0$C$L0
 62
     3
 10
-125.1212791627
 20
60.2420265425
 11
-122.6116608255
 21
60.2420265425
  0
LINE
  8
Layer0$C$L0
 62
     3
 10
-125.1212791627
 20
54.6037152690
 11
-122.6116608255
 21
54.6037152690
  0
LINE
  8
Layer0$C$L0
 62
     3
 10
-122.6116608255
 20
54.8414061853
 11
-125.1212791627
 21
54.8414061853
  0
LINE
  8
Layer0$C$L0
 62
     3
 10
-122.6116608255
 20
46.1292785897
 11
-122.6116608255
 21
67.9292788102
  0
LINE
  8
Layer0$C$L0
 62
     3
 10
-125.1212791627
 20
59.2171512145
 11
-122.6116608255
 21
59.2171512145
  0
LINE
  8
Layer0$C$L0
 62
     3
 10
-122.6116608255
 20
59.4548421308
 11
-125.1212791627
 21
59.4548421308
  0
ARC
  8
Layer0$C$L0
 62
     3
 10
-125.1684089832
 20
59.4193086125
 40
0.2243695314
 50
181.2539396027
 51
235.9011432304
  0
LINE
  8
Layer0$C$L0
 62
     3
 10
-125.1212791627
 20
59.2171512145
 11
-125.1212791627
 21
60.3830770374
  0
ARC
  8
Layer0$C$L0
 62
     3
 10
-125.1684089832
 20
54.6392487873
 40
0.2243695314
 50
124.0988567696
 51
178.7460603973
  0
LINE
  8
Layer0$C$L0
 62
     3
 10
-125.1212791627
 20
53.6754804036
 11
-125.1212791627
 21
54.8414061853
  0
LINE
  8
Layer0$C$L0
 62
     3
 10
-125.1634996087
 20
54.8438278063
 11
-122.6116608255
 21
54.8438278063
  0
LINE
  8
Layer0$C$L0
 62
     3
 10
-125.1634996087
 20
59.2147295934
 11
-122.6116608255
 21
59.2147295934
  0
LINE
  8
Layer0$C$L0
 62
     3
 10
-125.2153968098
 20
57.6268965217
 11
-125.2153968097
 21
59.2170651586
  0
LINE
  8
Layer0$C$L0
 62
     3
 10
-125.2153968098
 20
54.8414922411
 11
-125.2153968097
 21
56.4316608782
  0
LINE
  8
Layer0$C$L0
 62
     3
 10
-125.4868424204
 20
67.5492917492
 11
-125.4868424204
 21
67.2952027001
  0
LINE
  8
Layer0$C$L0
 62
     3
 10
-125.3927247733
 20
67.4885136380
 11
-125.3927247733
 21
67.2798014173
  0
LINE
  8
Layer0$C$L0
 62
     3
 10
-125.4868424204
 20
67.0864589253
 11
-125.4868424204
 21
66.3415079309
  0
LINE
  8
Layer0$C$L0
 62
     3
 10
-125.3927247733
 20
66.5148093669
 11
-125.3927247733
 21
66.1116086418
  0
LINE
  8
Layer0$C$L0
 62
     3
 10
-125.4868424204
 20
65.9382461874
 11
-125.4868424204
 21
64.7532004296
  0
LINE
  8
Layer0$C$L0
 62
     3
 10
-125.3927247733
 20
64.8946819961
 11
-125.3927247733
 21
64.3244699879
  0
LINE
  8
Layer0$C$L0
 62
     3
 10
-125.4868424204
 20
64.1829019717
 11
-125.4868424204
 21
62.6385202711
  0
LINE
  8
Layer0$C$L0
 62
     3
 10
-125.3927247733
 20
62.7385404084
 11
-125.3927247733
 21
62.0401763009
  0
LINE
  8
Layer0$C$L0
 62
     3
 10
-125.4868424204
 20
61.9400499871
 11
-125.4868424204
 21
60.1415794647
  0
LINE
  8
Layer0$C$L0
 62
     3
 10
-125.3927247733
 20
60.1933221171
 11
-125.3927247733
 21
59.4143981211
  0
LINE
  8
Layer0$C$L0
 62
     3
 10
-125.4868424204
 20
59.3625372114
 11
-125.4868424204
 21
57.4325407054
  0
LINE
  8
Layer0$C$L0
 62
     3
 10
-125.4868424204
 20
56.6260166945
 11
-125.4868424204
 21
54.6960201884
  0
LINE
  8
Layer0$C$L0
 62
     3
 10
-125.3927247733
 20
54.6441592786
 11
-125.3927247733
 21
53.8652352827
  0
LINE
  8
Layer0$C$L0
 62
     3
 10
-125.4868424204
 20
53.9169779352
 11
-125.4868424204
 21
52.1185074127
  0
LINE
  8
Layer0$C$L0
 62
     3
 10
-125.3927247733
 20
52.0183810988
 11
-125.3927247733
 21
51.3200169913
  0
LINE
  8
Layer0$C$L0
 62
     3
 10
-125.1212791627
 20
56.4292786999
 11
-122.6116608255
 21
56.4292786999
  0
LINE
  8
Layer0$C$L0
 62
     3
 10
-122.6116608255
 20
57.6292786999
 11
-125.1212791627
 21
57.6292786999
  0
LINE
  8
Layer0$C$L0
 62
     3
 10
-122.6116608255
 20
56.6218020643
 11
-125.1212791627
 21
56.6218020643
  0
LINE
  8
Layer0$C$L0
 62
     3
 10
-125.1212791627
 20
57.4367553354
 11
-122.6116608255
 21
57.4367553354
  0
ARC
  8
Layer0$C$L0
 62
     3
 10
-125.1898863753
 20
56.6251936228
 40
0.2028403260
 50
179.7500977118
 51
239.0531333236
  0
LINE
  8
Layer0$C$L0
 62
     3
 10
-125.3927247733
 20
57.4324794127
 11
-125.3927247733
 21
56.6260779872
  0
LINE
  8
Layer0$C$L0
 62
     3
 10
-125.1212791627
 20
57.6292787284
 11
-125.1212791627
 21
56.4292786714
  0
ARC
  8
Layer0$C$L0
 62
     3
 10
-125.1898863753
 20
57.4333637769
 40
0.2028403260
 50
120.9468666764
 51
180.2499022882
  0
ARC
  8
Layer0$C$L0
 62
     3
 10
-125.1212791627
 20
67.6292786999
 40
0.3000000000
 50
90.0000000000
 51
154.7988763545
  0
LINE
  8
Layer0$C$L0
 62
     3
 10
-136.3116613292
 20
53.7292787177
 11
-137.7116608136
 21
53.7292787177
  0
ARC
  8
Layer0$C$L0
 62
     3
 10
-136.3116609149
 20
54.3292786999
 40
0.6000000000
 50
270.0000000000
 51
450.0000000000
  0
LINE
  8
Layer0$C$L0
 62
     3
 10
-137.7116608136
 20
54.9292787747
 11
-136.3116613292
 21
54.9292787747
  0
ARC
  8
Layer0$C$L0
 62
     3
 10
-137.7116609149
 20
54.3292786999
 40
0.6000000000
 50
90.0000000000
 51
270.0000000000
  0
ARC
  8
Layer0$C$L0
 62
     3
 10
-136.9116609149
 20
54.3292786999
 40
2.2000000000
 50
140.4788036414
 51
219.5211963586
  0
LINE
  8
Layer0$C$L0
 62
     3
 10
-138.6087163054
 20
52.9292786798
 11
-138.6087163054
 21
55.7292786964
  0
LINE
  8
Layer0$C$L0
 62
     3
 10
-138.6864854657
 20
55.7292786964
 11
-138.6864854657
 21
55.6292787498
  0
LINE
  8
Layer0$C$L0
 62
     3
 10
-135.5116608255
 20
55.7292786963
 11
-138.6864854657
 21
55.7292786963
  0
LINE
  8
Layer0$C$L0
 62
     3
 10
-138.6864854657
 20
52.9292786798
 11
-135.5116608255
 21
52.9292786798
  0
LINE
  8
Layer0$C$L0
 62
     3
 10
-138.6864854657
 20
53.0292785099
 11
-138.6864854657
 21
52.9292786798
  0
ENDSEC
  0
EOF
